Song name
# A B C D E F G H I J K L M N O P Q R S T U V W X Y Z

Buckethead - Final Wars tab

-----------------------------------------------------------------------------
			     Final Wars - Buckethead
-----------------------------------------------------------------------------
Tabbed by:kseaxemaster
Email:kseaxemaster43@hotmail.com

Tuning:Eb


************************************

| /   slide up
| \   slide down
| h   hammer-on
| p   pull-off
| ~   vibrato
| +   harmonic
| x   Mute note
| b   Bend
| pb  Pre-bend
| br  Bend release
| pbr Pre-bend release
| brb Bend release bend

************************************


I can't hear all of it yet, so this is what I have so far. I also think that a baritone 
being used, so on the intro, one of the notes will sound wrong.
I sort of put down bends and vibratos,so just listen to song to know exactly how to play them.

I made this because there wasn't any tab for this song and so people could make 
of there own because I doubt I got everything right.

Please Comment.


  Intro:play twice
Eb|------------------------------------------------------------------|
Bb|------------------------------------------------------------------|
Gb|------------------------------------------------------------------|
Db|---------------2------------2-------------------------------------|
Ab|---3-2----------3-2----------3-2----------------------------------|
Eb|-00---3-2-0-2-0----3-2-0-2-0----3-2-0-2-0-3-2-3/5-3-0-------------|

  Next:I hear a high and low, but this is what i hear the most.
Eb|----------------------------------------------------------------------|
Bb|----------------------------------------------------------------------|
Gb|-15-11--11-13-11-15-11-18-16-15-16-15-11--11-13-11--11-13-11--11------|
Db|------15--------------------------------15--------15--------15--15-13-|
Ab|----------------------------------------------------------------------|
Eb|----------------------------------------------------------------------|

  Calm Solo
Eb|---------------------------------------------------------------------------|
Bb|---------------------------------------------------------------------------|
Gb|--------13/15-15~-15\13-11-13-11--11------------------18b-18-16\15-15~-15--|
Db|---11-13------------------------13--13p11--------13-16---------------------|
Ab|-13-----------------------------------------13-16--------------------------|
Eb|-----------------------------------------14--------------------------------|

Eb|-------------------------------------------------------------------------|
Bb|------19--19p18----------------------------------------------------------|
Gb|16------15-----18-15~-18b-18-16-13b--13/15~-20-18~-16-15~-16-------------|
Db|--16~------------------------------16----------------------16-15~--------|
Ab|----------------------------------------------------------------13--13-14|
Eb|------------------------------------------------------------------14-----|


Eb|-----------------------------|
Bb|-----------------------------|
Gb|-------------/20-18-20-------|
Db|-15p16-15p16----------18/20--|
Ab|-----------------------------|
Eb|-----------------------------|

  Next.:play twice
Eb|-----------------------------------------------------|
Bb|-----------------------------------------------------|
Gb|-11-11-11-11-13-13-13-13-15-15-15-15-----------------|
Db|-13-13-13-13-15-15-15-15-16-16-16-16-----------------|
Ab|-----------------------------------------------------|
Eb|-----------------------------------------------------|

  Solo
Eb|--------------------------------------------11---------------------------|
Bb|-14-------------------------------------------14b~~----------------------|
Gb|---15p13-13p11-13br11--13br11--13br11--11h13-------11-11~-10b------------|
Db|---------------------13------13------13----------------------13-11--11-13|
Ab|------------------------------------------------------------------13-----|
Eb|-------------------------------------------------------------------------|


Eb|----------------------------------------------16b-16b--------------------|
Bb|-------14--------------------------------------------16--16-----16b------|
Gb|-11-13b~~13b~~~~~--13--11~--11b-11---------11~---------18--18b~----------|
Db|---------------------13-----------13-----13~-----------------------16~---|
Ab|------------------------------------11\9---------------------------------|
Eb|-------------------------------------------------------------------------|

Eb|-------------------------------|
Bb|-------------------------------|
Gb|-------------------------------|
Db|-------------------------------|
Ab|-11b~~~+-+-+-+-----------------|
Eb|-------------------------------|
         SORRY...can't hear the sweep


  Next..
Eb|--------------------------------------------------------14-13-11-11------|
Bb|----14-11-11-11-11--16-14-16----------------------14-11-11-11-11-11------|
Gb|--11---------13-11----------13-15-18-16-15------11------13-13-11-11------|
Db|13----------------------------------------15--13-------------------------|
Ab|-------------------------------------------------------------------------|
Eb|-------------------------------------------------------------------------|

Eb|-------------------------------|
Bb|-16-14-16----------------------|
Gb|---------13-15-18-16-15--------|
Db|-----------------------15~-----|
Ab|-------------------------------|
Eb|-------------------------------|


   Next...
Eb|------------------------------------------------------------------------|
Bb|------------------------------------------------------------------------|
Gb|-8-8-8-10~-11-11-11-13~-15-15-15-16~-15-15-15-13~-11-11-11-11~-10-10-10-|
Db|------------------------------------------------------------------------|
Ab|------------------------------------------------------------------------|
Eb|------------------------------------------------------------------------|

Eb|-----------------------------|
Bb|-----------------------------|
Gb|-6~-3~-----------------------|
Db|-----------------------------|
Ab|-----------------------------|
Eb|-----------------------------|


   Next....:play twice
Eb|-------------------------------------------------------------------|
Bb|-------------------------------------------------------------------|
Gb|--------------------10-10-6-6-5-5-8-8-8-8-6-6-5--------------------|
Db|-8-8-8-6-6-8-8-6-8-8----------------------------8-8-8-8-6-6-8-8-8--|
Ab|-------------------------------------------------------------------|
Eb|-------------------------------------------------------------------|


   Next......:play twice
Eb|-----------------------------|
Bb|-11~-------------------------|
Gb|----13~-11~-10h11h13-10b~----|
Db|-----------------------------|
Ab|-----------------------------|
Eb|-----------------------------|


   Next.......
Eb|----------------------------------------------------------------------|
Bb|----------------------------------------------------------------------|
Gb|-----15/17-15~/17~----15/17-15~---13-15-15~-13-12h13p12~--12-13-13h15-|
Db|---13---------------13----------17------------------------------------|
Ab|-13---------------13--------------------------------------------------|
Eb|----------------------------------------------------------------------|

Eb|----------------------------------------------------------------------|
Bb|----------------------------------------------------------------------|
Gb|-13-12h13p12~-----15/17-15~/17----15/17-15~-12-13-13h15-13-12h13------|
Db|----------------13--------------13------------------------------13~---|
Ab|--------------13--------------13--------------------------------------|
Eb|----------------------------------------------------------------------|


Eb|-------------------------------------------------------------------------|
Bb|--------------------------15pb15---------------15pb15--------------------|
Gb|-------13h15-13-12h13p12~-------15\12----------------15\12---------------|
Db|---13--------------------------------12pb12---------------12pb12----13-15|
Ab|-15--15------------------------------------13/15----------------13/15----|
Eb|-------------------------------------------------------------------------|


Eb|-----------------------------------------------------------|
Bb|-----------------------------------------------------------|
Gb|-12-10-8-10-12-(8-)-13p12-10-12-10-----------12-13-12~-----|
Db|---------------(10)---------------10-12-12-13--------------|
Ab|-----------------------------------------------------------|
Eb|-----------------------------------------------------------|

   Next........:hit the first note multiple times and then start to tremelo it.
Eb|-------------------------------------------------------------16b~~~-----|
Bb|-14b~~~~~~~~~~~~~~~~~~~~~~~~~~14----------------14b~-14pb14-------------|
Gb|--------------------------------11-13b~~-11----------------11-----------|
Db|-------------------------------------------13-11------------------------|
Ab|------------------------------------------------------------------------|
Eb|------------------------------------------------------------------------|

Eb|-14----------------------------------------------------------------------|
Bb|---16-14-16--14b~-14-11--------------------------------------------------|
Gb|-----------15----------13b~13~13~~13~13~~13~13~13~13~13~--13br11--13-11~~|
Db|----------------------------------------------------------------13-------|
Ab|-------------------------------------------------------------------------|
Eb|-------------------------------------------------------------------------|


Eb|-------------------------11----------|
Bb|-----------------------11--11-14b~---|
Gb|------11~--------11~-13b~------------|
Db|-13-11---13-11-13--------------------|
Ab|-------------------------------------|
Eb|-------------------------------------|
      I would use the D minor scale in the Eb tuning to finish the last few seconds 
think, tell me if I'm mistaken.
Enjoy.
Tap to rate this tab
 
# A B C D E F G H I J K L M N O P Q R S T U V W X Y Z