Buckethead - Pirates Life For Me tab

I SOUDED THIS OUT SO HOPE YOU ENJOY I THINK IT SOUND A LOT BETTER WITH DISTORTION.


E------------------------------|
B------------------------------|
G------------------------------|
D------------------------------|
A-----2--4--2------------------|
E--4-----------444---22--0-(0)-|


E------------------------------|
B------------------------------|
G------------------------------|
D------------------------------|
A----------------2-4-2---------|
E---44-44-44444----------0-2-4-|


E------------------------------|
B------------------------------|
G------------------------------|
D------------------------------|
A------------------------------|
E--4-555-222-444-000-----------|

E-------------------------------|
B-------------------------------|
G-------------------------------|
D-------------------------------|
A---------2---------------------|
E-2-2224------------------------|
Tap to rate this tab
 
# A B C D E F G H I J K L M N O P Q R S T U V W X Y Z