Buckethead - Star Wars Live tab

Buckethead  Star wars (Live Version)

Standard Tuning

Part A
E----------------------------6----------------------6------------------------|
B----------6-------4--3---------6-------4--3------6----------4--3--4---------|
G---3-----------------------5------------------5---------------------5-------|
D----------------------------------------------------------------------------|
A----------------------------------------------------------------------------|
E----------------------------------------------------------------------------|
        x2

Part B
E----------------------------------------------------------------------------|
B----------------------------------------------------------------------------|
G----------------------------------------------3p5--3h5p3h5p3h5p3h5p3--------|
D-----3----5--6h8p6------------3---3--6p3-6p3--------------------------------|
A---3--------------------3---3-----------------------------------------------|
E----------------------------------------------------------------------------|

E----------------------------------------------------------------------------|
B----------------------------------------------------------------------------|
G--------------------3--5----/10---------------------5-----------------------|
D----------3---6p3-------6------------------6-5-4------6-5-4-----------3-----|
A---3-3-3------------------------------------------------------3---3---------|
E----------------------------------------------------------------------------|

Part C
E--------------------------------------------------------------------------|
B--------------------------------------------------------------------------|
G--------------------------------------------------------------------------|
D---15--17--18h20p18-------15---15-18p15-18p15-----------------------------|
A-15--------------------15-------------------------------------------------|
E--------------------------------------------------------------------------|

E----------------------------------------------------------------------------|
B----------------------------------------------------------------------------|
G---17p15--15h17p15h17p15h17p15h17p15----------------------------------------|
D----------------------------------------------------------------------------|
A----------------------------------------------------------------------------|
E----------------------------------------------------------------------------|


E----------------------------------------------------------------------------|
B-------------------------------------18-------------------------------------|
G---------------------------15--17-------------------17----------------------|
D--------------15--18p15-----------18-----18-17-16--------18-17-16-------15--|
A---15-15-15------------------------------------------------------15--15-----|
E----------------------------------------------------------------------------|

Darth Vader
E---------------------------------------------------------------------------|
B---------------------------------------------------------------------------|
G---------------------------------------------------------------------------|
D---------------------------------------------4--4--4--5-4------------------|
A---2---2---2------5--2-------5--2-------------------------5-------5--2-----|
E---0---0---0----3-----------3-----------------------------------3----------|
Tap to rate this tab
 
# A B C D E F G H I J K L M N O P Q R S T U V W X Y Z