Song name
# A B C D E F G H I J K L M N O P Q R S T U V W X Y Z

Buckethead - Lebrons Hammer tab

Lebrons Hammer- By Buckethead
Tribute to Lebron James

Intro: 0:00-00:18 x4 (palm mute)

Tuning: DROP D, DUH!!! :P
Tabbed by DjChrispy

Saw the other tabs in standard. Why are you making it hard on yourself lol?
BUCKETHEAD IS THE MAN!!!!

Email me at DjChrispy@gmail.com
Visit me at www.myspace.com/audiosurfmusic

E|----------|----------|----------|----------|
B|----------|----------|----------|----------|
G|-11----11-|----------|----------|----------|
D|----11----|-11----11-|-14----14-|----------|
A|----------|----12----|----16----|-14----14-|
D|----------|----------|----------|----14----|

Part 1:

d|-444---------------444---------------------------------------------|
a|-444-------2-4-5-4-444------2/7/5/4----|---------------------------|
D|-444-0/2/4---------444-0/2/4-----------|---------------------------|

part 2

e|-----------------------|-------------------------------|
B|-----------------------|-------------------------------|
G|-----------------------|-------------------------------|
D|-10/7-7--------10/7-7--|-7--9-10-----------------------|
A|-10/7-7--------10/7-7--|-7--9-10-----------------------|
D|-10/7-7--xxxxx-10/7-7--|-7--9-10-----------------------|

part 3
e|------------------------------------------------------|
B|------------------------------------------------------|
G|------------------------------------------------------|
D|-2-4-4-4-5-4-5-5-7-5~-2-4-4-2-4-4-4-5-4-3-------------|
A|-2-4-4-4-5-4-5-4-7-5~-2-4-4-2-4-4-4-5-4-3~~~----------|
D|-2-4-4-4-5-4-5-4-7-5~-2-4-4-2-4-4-4-5-4-3~~~----------|


e|------------------------------------------------------|
B|------------------------------------------------------|
G|------------------------------------------------------|
D|------------------------11-9-7------------------------|
A|------------------------11-9-7------------------------|
D|-Shred bottom string----11-9-7------------------------|

Part 5:

E|------------------------------------------|--------------------------------|
B|------------------------------------------|--------------------------------|
G|------------------------------------------|--------------------------------|
D|-11-11-11-------9-9-9-------7-7-7-------6-|-11---9---7-7-------7-------7---|
A|--9--9--9-9-9-9-7-7-7-7-7-7-5-5-5-5-5-5-4-|--9---7---5-5---5-5-5---4-4-5---|
E|------------------------------------------|--------------------------------|

Part 6:
EPIC SOLO
e|-----------------------------------------------------0--------------|
B|-------2---2------------------------2---2-------------3-2~~---------|
G|------2--2--2-1-2-1-1--------------2--2---2-1-2-1-------------------|
D|----4--------------2--2-0-2------4----------------2-----------------|
A|---4---------------------------4------------------------------------|
D|--4---------------------------4-------------------------------------|

Part 7:

e|------------------------------------------------------------|
B|------------------------------------------------------------|
G|------------------------------------------------------------|
D|------------------------------------------------------------|
A|------4---5---7---------------------------------------------|
D|--2-4---4---5---7-------------------------------------------|

Drums:

Repeat Part 2: 02:26-02:43 x3

Repeat Part 3: 02:44-03:01 x3

Repeat Part 4: 03:02-03:12 x1

Repeat Part 7: 03:12-03:21 x5

Drums: 03:22-03:23

Solo: 03:23-03:41
Tap to rate this tab
 
# A B C D E F G H I J K L M N O P Q R S T U V W X Y Z