Song name
# A B C D E F G H I J K L M N O P Q R S T U V W X Y Z

Buckethead - Squid Ink Part 2 tab

Tuning: Bb Standard


e|-----------------------------------------------------------------------|
B|---------0---------------0-----------0---------------------------------|
G|-------3---3-----------3---3--------3-3--------------------------------|
D|-----4-------4------ 4-------4-----4---4-------------------------------|
A|---2-----------2---2-----------2--2-----2-2----------------------------|
E|-4---------------4---------------0-------0-----------------------------|

e|---------------------------------------------------------------------|
B|----0-------0--------------------------------------------------------|
G|---3-3-----3-3-------------------------------------------------------|
D|--4---4---4---4------------------------------------------------------|
A|-------2-2-----2-----------------------------------------------------|
E|--------0------------------------------------------------------------|
Tap to rate this tab
 
# A B C D E F G H I J K L M N O P Q R S T U V W X Y Z