Buckethead - Crack The Sky tab

Buckethead - Crack the Sky (2011)
tabbed by symon godfrey


	0:00 - 0:21
|-------------------------------|
|-------------------------------|
|-------------------------------|
|---------9~--------------------| x4
|-----7-6------6-7----6-7-------|
|---9--------7------4-----5~~---|


	0:21 - 1:00 (hard to tab just listen to song)
|-----------------------------------------------------|
|-----------------------------------------------------|
|-----------------------------------------------------|
|-----------------------------------------------------| x4
|---9/11--------------14-14--9/11--------------6/7----|
|---7/9--999-999-999--12-12--7/9--999-999-999--4/5----|

|-------------------------------------|
|-------------------------------------| then repeat
|-------------------------------------| second section
|-------------------------------------| and then back
|---5/6-6/7---------------9-9--9/11---| to this part
|---3/4-4/5--555-555-555--7-7--7/9----|


	1:00 - 1:22
|-----------------------------------------------|
|-----------------------------------------------|
|-----------------------------------------------|
|-----------------------------------------------|
|---11\10/11-x2--14\13/14--7\6/7--9--14\13/14---|
|---9-\8/-9------12\11/12--5\4/5--7--12\11/12---|

|---------------------------------------|
|---------------------------------------|
|---------------------------------------|
|---------------------------------------|
|---11\10/11-x2--14\13/14--7\6/7--9~~---|
|---9-\8/-9------12\11/12--5\4/5--7~~---|

|------------------------------------------------|
|------------------------------------------------|
|------------------------------------------------|
|------------------------------------------------|
|---11\10/11-x2--14\13/14--7\6/7--9|--14\13/14---|
|---9-\8/-9------12\11/12--5\4/5--7|--12\11/12---|

|---------------------------------------|
|---------------------------------------|
|---------------------------------------|
|---------------------------------------|
|---11\10/11-x2--14\13/14--7\6/7--9~~---|
|---9-\8/-9------12\11/12--5\4/5--7~~---|

this is all i have so far, i'll update the rest as i get more down thanks
was a quick tab, not claiming it's 100% accurate, but on my setup it sounds good.
Tap to rate this tab
 
# A B C D E F G H I J K L M N O P Q R S T U V W X Y Z