Song name
# A B C D E F G H I J K L M N O P Q R S T U V W X Y Z

Buckethead - Willy Wonka Theme tab

-----------------------------------------------------------------------------
			     Willy Wonka Theme - Buckethead
-----------------------------------------------------------------------------
Tabbed by:Ritt13
Email:ritt13@comcast.net

Tuning:Standard

Intro
e|----------------|
B|-16-18-19-20-21-|
G|----------------|
D|-13-15-16-17-18-|
A|----------------|
E|----------------|

Song
e|--------------------------------------|
B|--------------------------------------|
G|-----2------2-------2/6-7-6-7-6-7-6/2-|
D|-1-4------4---4-1-4-------------------|
A|--------------------------------------|
E|--------------------------------------|

e|-------------------------------------|
B|----------0-2------------------------|
G|-----3--------3-1--------------------|
D|-1-4--------------4-3--4-3-4-3-4-3---|
A|-----------------------------------4-|
E|-------------------------------------|

e|---------------------------------------|
B|---------------------------------------|
G|-11-13-11-13-11-10-6-3-3-4-3-4-3---3-6-|
D|-11-------------10-----3---------3-3---|
A|---------------------------------------|
E|---------------------------------------|


e|-------------------1------------|
B|-6-7-6-7-6-7-6---4---4--6-4-6-4-|
G|-5-------------5----------------|
D|--------------------------------|
A|-----------------1--------------|
E|--------------------------------|

Outro
e|--------------------------------------------------------------------------|
B|-4-6-7-8-9----------------------------------------------------------------|
G|--------------------------------------------------------------------------|
D|-1-3-4-5-6----------------------------------------------------------------|
A|--------------------------------------------------------------------------|
E|--------------------------------------------------------------------------|










************************************

| /   slide up
| \   slide down
| h   hammer-on
| p   pull-off
| ~   vibrato
| +   harmonic
| x   Mute note
| b   Bend
| pb  Pre-bend
| br  Bend release
| pbr Pre-bend release
| brb Bend release bend

************************************
Tap to rate this tab
 
# A B C D E F G H I J K L M N O P Q R S T U V W X Y Z