Buckethead - Want Some Slaw tab

Artist: Buckethead
Song  : Want Some Slaw?
Album : Giant Robot
Tuning: E A B G B e
Main riff
e|---------------------------------------------------------------|
B|---------------------------------------------------------------|
G|-7-10-9---------7-10-9h10p9---------7-10-9-6-9-8-5-8-7---------|
D|----------4-3-----------------4-3------------------------4-3---|
A|----------4-3-----------------4-3------------------------4-3---|
E|----------2-1-----------------2-1------------------------2-1---|


-------------------------------------------------------------------|
-------------------------------------------------------------------|
-7-10-9---------7-10-9h10p9---------7-10-9-6-9-8-5-8-7-------------|
----------4-3-----------------4-3------------------------4-3-3-3---|
----------4-3-----------------4-3------------------------4-3-3-3---|
----------2-1-----------------2-1------------------------2-1-1-1---|
                                                            PM . .

-------------------------------------------------------------------------|
-------------------------------------------------------------------------|
-------------------------------------------------------------------------|
-7-10-9---4-3-3-3---7-10-9/10\9---4-3-3-3---7-10-9-6-9-8-5-8-7---4-3-3-3-|
-5-8--7---4-3-3-3---5-8--7/8\7----4-3-3-3---5-8--7-4-7-6-3-6-5---4-3-3-3-|
----------2-1-1-1-----------------2-1-1-1------------------------2-1-1-1-|
  MP          . .                     . .                            . .

-------------------------------------------------------------------------|
-------------------------------------------------------------------------|
-------------------------------------------------------------------------|
-7-10-9---4-3-3-3---7-10-9/10\9---4-3-3-3---7-10-9-6-9-8-5-8-7---4-3-3-3-|
-5-8--7---4-3-3-3---5-8--7/8\7----4-3-3-3---5-8--7-4-7-6-3-6-5---4-3-3-3-|
----------2-1-1-1-----------------2-1-1-1------------------------2-1-1-1-|
  MP          . .                     . .                            . .

------------------------------------------------------------------|
------------------------------------------------------------------|
------------------------------------------------------------------|
-7-10-9---4-3-3-3---7-10-9/10\9---4-3-3-3---7-10-9-6-9-8-5-8-7~---|
-5-8--7---4-3-3-3---5-8--7/8\7----4-3-3-3---5-8--7-4-7-6-3-6-5~---|
----------2-1-1-1-----------------2-1-1-1-------------------------|
  MP          . .                     . .

Buckethead's a psycho! Buckethead's a psycho! he's total psycho!

-----------------------------------------------------------------------|
-----------------------------------------------------------------------|
--19-15------19-15------19-15------17-14------15-12-----15-12----------|
---------17----------17--------17----------15---------13--------13-----|
-----------------------------------------------------------------------|
-----------------------------------------------------------------------|

-------------------------|
-------------------------|
-15-12------17-14--------|
-------13----------15----| 4x
-------------------------|
-------------------------|


ill finish the rest later, hope you liked it
Tap to rate this tab
 
# A B C D E F G H I J K L M N O P Q R S T U V W X Y Z