Song name
# A B C D E F G H I J K L M N O P Q R S T U V W X Y Z

Buckethead - Brooding Peeps tab

I hate to only post the intro, but there's no other tabs for this song, and I can't 
figure the rest out on my own. Enjoy.


e|---------------------------------------------------------------|
B|---------------------------------------------------------------|
G|--4------------------------------------------------------------|
D|--4-x8---------------------------------------------------------|
A|--2------------------------------------------------------------|
E|---------------------------------------------------------------|

e|---------------------------------------------------------------|
B|---------------------------------------------------------------|
G|------2--------2-----------------------------------------------|
D|--------4--------4--------------2------------------------------|
A|--2-5------2-5---------4---5--0--------------------------------|
E|---------------------2---3-------------------------------------|

e|---------------------------------------------------------------|
B|---------------------------------------------------------------|
G|------2--------2-----------------------------------------------|
D|--------4--------4--------------2-----2-------0----------------|
A|--2-5------2-5---------4---5--0---0-4---4---2---2--------------|
E|---------------------2---3----------------3--------------------|
Tap to rate this tab
# A B C D E F G H I J K L M N O P Q R S T U V W X Y Z