Song name
# A B C D E F G H I J K L M N O P Q R S T U V W X Y Z

Buckethead - Brooding Peeps tab

What a cool song. Really is a lotta fun to play and not that difficult
with the exception of the one solo. Lots of different ways to play this 
so if it doesn't sound right try shuffling some of the same notes onto
different string. This is what sounds best for me. The second solo
I will try to tab out soon. The first one I doubt I'll be able to get.
If anyone can it would be GREATLY appreciated. Sounds unbelievable!
Enjoy!

Segment 1: 8x
e|-----------|---------------------------------------------------------|
B|.---------.|---------------------------------------------------------|
G|--4--4--4--|---------------------------------------------------------|
D|--4--4--4--|---------------------------------------------------------|
A|.-2--2--2-.|---------------------------------------------------------|
E|-----------|---------------------------------------------------------|

Segment 2:                              3x
e|------------------------|---------------|----------------------|-----|
B|.-----------------------|--------------.|----------------------|-----|
G|------------------------|---------------|----------------------|-----|
D|-------7-----------7----|---------------|----------------------|-----|
A|.--------9-----------9--|----4---5---7-.|------7----------5----|-----|
E|--7-10--------7-10------|--2---3---5----|--5-9---9----3-7---7--|-----|
                                        3x
e|------------------------|---------------|----------------------|-----|
B|.-----------------------|--------------.|----------------------|-----|
G|------------------------|---------------|----------------------|-----|
D|-------7-----------7----|---------------|----------------------|-----|
A|.--------9-----------9--|----4---5---7-.|------7----------5----|-----|
E|--7-10--------7-10------|--2---3---5----|--5-9---9----3-7---7--|-----|

Segment 3:
e|--------------7-----7------|----------------------------------|------|
B|.-7--7--7--7--7-----7-----.|.-----------------10--12--10--12-.|------|
G|--7--7--7--7--7--7--7--7---|--11--11--11--11--11--11--11--11--|------|
D|--9--9--9--9-----9-----9---|--12--12--12--12--12--12--12--12--|------|
A|.-------------------------.|.-10--10--10--10-----------------.|------|
E|---------------------------|----------------------------------|------|

e|--------------7-----7------|----------------------------------|------|
B|.-7--7--7--7--7-----7-----.|------------------10--12--10--12--|------|
G|--7--7--7--7--7--7--7--7---|--11--11--11--11--11--11--11--11--|------|
D|--9--9--9--9-----9-----9---|--12--12--12--12--12--12--12--12--|------|
A|.-------------------------.|--10--10--10--10------------------|------|
E|---------------------------|----------------------------------|------|

e|--------------10--10--10--10--10--|----------------------------------|
B|----------10--10--10--12--10--12--|----------------------------------|
G|--11--11--11--11--11--11--11--11--|----------------------------------|
D|--12--12--12--12--12--12--12--12--|----------------------------------|
A|--10--10--10--10------------------|----------------------------------|
E|----------------------------------|----------------------------------|
  Play these chords with a quick stop after strumming

Segment 4:
e|---------------------------|-----------------------------------------|
B|---------------------------|-14--15--15h17--17h19--15\14--14--15-----|
G|--/11----\9--/11----/14----|--------------------------------------14-|
D|---------------------------|-----------------------------------------|
A|---------------------------|-----------------------------------------|
E|---------------------------|-----------------------------------------|

                                    *
e|---------------------------|----------------------------|------------|
B|----------------14---------|--15p14----/17--19--20--19--|------------|
G|--\9--11-------------------|----------------------------|------------|
D|---------------------------|----------------------------|------------|
A|---------------------------|----------------------------|------------|
E|---------------------------|----------------------------|------------|
  *8x

Segment 5: 
    P.M.--------------------------------------------*---|      +
e|---------------|---------------|---------------|--------0----0-------|
B|.--------------|---------------|---------------|--------0----0------.|
G|--4-4-4-4-4-4--|--7-7-7-7-7-7--|--4-4-4-4-4-4--|--7-7-7-7----7-------|
D|--4-4-4-4-4-4--|--7-7-7-7-7-7--|--4-4-4-4-4-4--|--7-7-7-7----7-------|
A|.-2-2-2-2-2-2--|--5-5-5-5-5-5--|--2-2-2-2-2-2--|--5-5-5-5----5------.|
E|---------------|---------------|-------------------------------------|
  *Second time pick scrape followed by fast slide up & down on the A
  +Stop that one short

Segment 6:                                        *
e|-----------------------|------------------------------|--------------|
B|-----------------------|--------/10----10-\8----\7-7--|--------------|
G|--7--Bend slightly-----|-11---7-/11----11-\9----\7-7--|--------------|
D|--7--and slowly-----9--|----9-------------------------|--------------|
A|-----------------------|------------------------------|--------------|
E|-----------------------|------------------------------|--------------|
  *If you have trouble making that slide, make sure the axe of your 
   fretting hand is perpendicular to the neck

e|--(10)-(10)-(10)-/(12)-(12)-(12)--|-/(14)-(14)-(14)-(10)-(10)-(10)---|
B|----------------------------------|----------------------------------|
G|---7----7----7---/-9----9----9----|--/11---11---11---7----7----7-----|
D|----------------------------------|----------------------------------|
A|----------------------------------|----------------------------------|
E|----------------------------------|----------------------------------|
  For those notes in (), I fret them and kinda overshoot the G so the e
  is heard but not predominant, have to mute the B if you want to do it
  this way
                                                                    *
e|---9---/10--\9-----10---10---10---|---12---12---12---14---14---14----|
B|----------------------------------|----------------------------------|
G|---6---/7---\6-----7----7----7----|---9----9----9----11---11---11----|
D|----------------------------------|-------------------------------/16|
A|----------------------------------|----------------------------------|
E|----------------------------------|----------------------------------|
  *Should be /16(b)19

Segment 7:
e|---------------------|--9-------10\9----------10----14--|------------|
B|--------------7------|----10h12------10-12-------12-----|------------|
G|--7-------------/11--|----------------------------------|------------|
D|--7--9p7h9-----------|----------------------------------|------------|
A|---------------------|----------------------------------|------------|
E|---------------------|----------------------------------|------------|

-First Solo-

Segment 8:                                             3x
e|---------------------------|---------------------------|-------------|
B|.--------------------------|--------------------------.|-------------|
G|---------------------------|---------------------------|-------------|
D|-----------9---------------|---------------------------|-------------|
A|.------5h7------9p7-5------|--4----4h5-5/7----5p4-4p0-.|-------------|
E|--7------------------------|---------------------------|-------------|

e|---------------------------|---------------------------|-------------|
B|---------------------------|---------------------------|-------------|
G|---------------------------|---------------------------|-------------|
D|---------------------------|---------------------------|-------------|
A|--0----4h5-5/7----5p4-4p0--|--0----4h5-5/7----9--------|-------------|
E|---------------------------|---------------------------|-------------|

e|---------------------------|---------------------------|-------------|
B|---------------------------|---------------------------|-------------|
G|---------------------------|---------------------------|-------------|
D|-----------9---------------|---------------------------|-------------|
A|-------5h7------9p7-5------|--4----4h5-5/7----5p4-4p0--|-------------|
E|--7------------------------|---------------------------|-------------|

e|-----------|---------------------------------------------------------|
B|-----------|---------------------------------------------------------|
G|--4--4--4--|---------------------------------------------------------|
D|--4--4--4--|---------------------------------------------------------|
A|--2--2--2--|---------------------------------------------------------|
E|-----------|---------------------------------------------------------|

-Second Solo-

Segment 9:
e|----------------5-/7--------5----5--|--------------------------------|
B|--------------3------7--------------|--------------------------------|
G|------------4-------------7----6----|--------------------------------|
D|--2h4---4-5-------------------------|--------------------------------|
A|------2-----------------------------|--------------------------------|
E|------------------------------------|--------------------------------|

e|------------------------------------|--------------------------------|
B|--------------3-5-/7----------------|--------------------------------|
G|------------4--------6------\2------|--------------------------------|
D|--2h4---4-5-------------------------|--------------------------------|
A|------2-----------------------------|--------------------------------|
E|------------------------------------|--------------------------------|

e|----------------5-/7--------5----5--|--------------------------------|
B|--------------3------7--------------|--------------------------------|
G|------------4-------------7----6----|--------------------------------|
D|--2h4---4-5-------------------------|--------------------------------|
A|------2-----------------------------|--------------------------------|
E|------------------------------------|--------------------------------|

e|------------------------------------|--------------------------------|
B|--------------3-5-/7----------------|--------------------------------|
G|------------4--------6------\2------|--------------------------------|
D|--2h4---4-5--------------------2----|--------------------------------|
A|------2-----------------------------|--------------------------------|
E|------------------------------------|--------------------------------|

Segment 10:
e|---------------------------|--------------------#--#----|------------|
B|.-------------------+------|--*--------*--------5--7---.|------------|
G|--------------------4------|--6--------7----------------|------------|
D|--*--------*---------------|----------------------------|------------|
A|.-2--------5---------------|---------------------------.|------------|
E|---------------------------|----------------------------|------------|
                      +         *        *        #  #
e|--------------------7------|--9--------10-------12-14---|------------|
B|.--------------------------|---------------------------.|------------|
G|--------------------4------|--6--------7--------9--11---|------------|
D|--*--------*---------------|----------------------------|------------|
A|.-2--------5---------------|---------------------------.|------------|
E|---------------------------|----------------------------|------------|
  *6x with palm mute
  +4x with palm mute
  #2x with palm mute
  

Segment 11:
e|----------------------------------------------------------|----------|
B|----------------------------------------------------------|----------|
G|--4------4-4-4--4-4-4--4-4-4--4-4-4--4-4-4--4-4-4--4-4-4--|----------|
D|--4------4-4-4--4-4-4--4-4-4--4-4-4--4-4-4--4-4-4--4-4-4--|----------|
A|--2------2-2-2--2-2-2--2-2-2--2-2-2--2-2-2--2-2-2--2-2-2--|----------|
E|----------------------------------------------------------|----------|

e|----------------------------------------------------------|----------|
B|----------------------------------------------------------|----------|
G|------------------------------2-2-2--2-2-2--2-2-2--2-2-2--|----------|
D|--5-5-5--5-5-5--5-5-5--5-5-5--2-2-2--2-2-2--2-2-2--2-2-2--|----------|
A|--5-5-5--5-5-5--5-5-5--5-5-5--0-0-0--0-0-0--0-0-0--0-0-0--|----------|
E|--3-3-3--3-3-3--3-3-3--3-3-3------------------------------|----------|

Segment 12:
e|-----------------------------------------------------------|---------|
B|.----------------------------------------------------------|---------|
G|------4----------4----------4----------4----------4--------|---------|
D|------4----------4----------4----------4----------4--------|---------|
A|.-0-0-2--2-2-2-2-2--2-2-2-2-2--2-2-2-2-2--2-2-2-2-0--------|---------|
E|----------------------------------------------------3-2-0--|---------|

e|-------------------------------------------------------------|-------|
B|-------------------------------------------------------------|-------|
G|------4----------4----------4----------4----------4----------|-------|
D|------4----------4----------4----------4----------4----------|-------|
A|--0-0-2--2-2-2-2-2--2-2-2-2-2--2-2-2-2-2--2-2-2-2-2-0--------|-------|
E|------------------------------------------------------3-2-0--|-------|

e|-------------------------------------------------------------|-------|
B|-------------------------------------------------------------|-------|
G|------4----------4----------4----------4----------4----------|-------|
D|------4----------4----------4----------4----------4----------|-------|
A|--0-0-2--2-2-2-2-2--2-2-2-2-2--2-2-2-2-2--2-2-2-2-2-0--------|-------|
E|------------------------------------------------------3-2-0--|-------|

e|--------------------------------------------------------|------------|
B|--------------------------------------------------------|------------|
G|--------------------------------------------2--------2--|------------|
D|--5----------5----------5----------5--------2--------2--|------------|
A|--5----------5----------5----------5--(0-0)-0--(0-0)-0--|------------|
E|--3--3-3-3-3-3--3-3-3-3-3--3-3-3-3-3--------------------|------------|

Segment 13: 4x
e|-----------|---------------------------------------------------------|
B|.---------.|---------------------------------------------------------|
G|--4--4--4--|---------------------------------------------------------|
D|--4--4--4--|---------------------------------------------------------|
A|.-2--2--2-.|---------------------------------------------------------|
E|-----------|---------------------------------------------------------|

*It's not what you play, it's how you play it*
~Ferg
Tap to rate this tab
# A B C D E F G H I J K L M N O P Q R S T U V W X Y Z