Song name
# A B C D E F G H I J K L M N O P Q R S T U V W X Y Z

Buckethead - Welcome To Buckethead Land tab

----------------------------------------------------------------------------
	          Welcome to Bucketheadland - Buckethead
----------------------------------------------------------------------------
Tabbed by: Ross Louden
Email: cant_i_live@hotmail.com

Tuning: eBGDAE

e|-----------------------------------------------------------------------| 
B|-----------------------------------------------------------------------|
G|-----------------------------------------------------------------------|x4
D|----------------------------------------------------0------------------|
A|-------------0-10h-0-10h-0-9h-0-9h----------------4----5---------------|
E|-7-10h-7-10h-----------------------7-10h-7-10h--5------3---------------|	

e|-----------------------------------------------------------------------|
B|-----------------------------------------------------------------------|
G|-----------------------------------------------------------------------|
D|-------------------------7-----5---------------------------------------|
A|-----4-5-4+--5-5--4-5---------------------4-5-4--5-5-------------------|
E|-2-2---------3-3------3-3---3-3-----2-2----------3-3-------------------|
 
 |--------------------------|
 |--------------------------|
 |--7-6-4-------------------|
 |--------7-5-4-------------|
 |--------------7-5-4-------|
 |--------------------7-5-3-|

e|-----------------------------------------------------------------------|
B|-----------------------------------------------------------------------|
G|-----------------------------------------------------------------------|
D|-------------------------7-----5---------------------------------------|
A|-----4-5-4+--5-5--4-5---------------------4-5-4--5-5-------------------|
E|-2-2---------3-3------3-3---3-3-----2-2----------3-3-------------------|

 |---------------------|
 |---------------------|
 |---------------------|x4  
 |--------2--------2---|
 |------4-2-4--5-5-2-4-|
 |-7/3--2-0-2--3-3-0-2-|

e|-----------------------------------------------------------------------| 
B|-----------------------------------------------------------------------|
G|-----------------------------------------------------------------------|x4
D|----------------------------------------------------0------------------|
A|-------------0-10h-0-10h-0-9h-0-9h----------------4----5---------------|
E|-7-10h-7-10h-----------------------7-10h-7-10h--5------3---------------|

e|-----------------------------------------------------------------------|
B|-----------------------------------------------------------------------|
G|-----------------------------------------------------------------------|
D|-------------------------7-----5---------------------------------------|
A|-----4-5-4+--5-5--4-5---------------------4-5-4--5-5-------------------|
E|-2-2---------3-3------3-3---3-3-----2-2----------3-3-------------------|
 
 |--------------------------|
 |--------------------------|
 |--7-6-4-------------------|
 |--------7-5-4-------------|
 |--------------7-5-4-------|
 |--------------------7-5-3-|

e|-----------------------------------------------------------------------|
B|-----------------------------------------------------------------------|
G|-----------------------------------------------------------------------|
D|-------------------------7-----5---------------------------------------|
A|-----4-5-4+--5-5--4-5---------------------4-5-4--5-5-------------------|
E|-2-2---------3-3------3-3---3-3-----2-2----------3-3-------------------|

 |---------------------|
 |---------------------|
 |---------------------|x4  
 |--------2--------2---|
 |------4-2-4--5-5-2-4-|
 |-7/3--2-0-2--3-3-0-2-|

	He plays this version live
e|--------------------------------------------------------15~-14~-12-----|
B|-11\12-12-12-12-12-14-14-14-14-14-14-15-15-15-15-15-15-----------------|
G|-----------------------------------------------------------------------|x2
D|-----------------------------------------------------------------------|
A|-----------------------------------------------------------------------|
E|-----------------------------------------------------------------------|

	And this version on the album
e|-----------------------------------------------------15~-14~-12--------|
B|-12-12-12-12-12-14-14-14-14-14-14-15-15-15-15-15-15--------------------|
G|-----------------------------------------------------------------------|x2
D|-----------------------------------------------------------------------|
A|-----------------------------------------------------------------------|
E|-----------------------------------------------------------------------|

 |---------------------|
 |---------------------|
 |---------------------|x4  
 |--------2--------2---|
 |------4-2-4--5-5-2-4-|
 |-7/3--2-0-2--3-3-0-2-|

e|-----------------------------------------------------------------------| 
B|-----------------------------------------------------------------------|
G|-----------------------------------------------------------------------|x4
D|----------------------------------------------------0------------------|
A|-------------0-10h-0-10h-0-9h-0-9h----------------4----5---------------|
E|-7-10h-7-10h-----------------------7-10h-7-10h--5------3---------------|	

e|--------------------------------------------------------15~-14~-12-----|
B|-11\12-12-12-12-12-14-14-14-14-14-14-15-15-15-15-15-15-----------------|
G|-----------------------------------------------------------------------|x2
D|-----------------------------------------------------------------------|
A|-----------------------------------------------------------------------|
E|-----------------------------------------------------------------------|
				OR
e|-----------------------------------------------------15~-14~-12--------|
B|-12-12-12-12-12-14-14-14-14-14-14-15-15-15-15-15-15--------------------|
G|-----------------------------------------------------------------------|x2
D|-----------------------------------------------------------------------|
A|-----------------------------------------------------------------------|
E|-----------------------------------------------------------------------|


 I havent got round to tabbing the solo yet but I think its mainly played
 around the frets 16-21 on the e and B  strings so be creative. Good luck
 and happy guitar playing.

 Any questions about this tab feel free to e-mail me. =]



| /  slide up
| \  slide down
| h  hammer-on
| p  pull-off
| ~  vibrato
| +  harmonic
| x  Mute note
============================================================================
Tap to rate this tab
 
# A B C D E F G H I J K L M N O P Q R S T U V W X Y Z