Song name
# A B C D E F G H I J K L M N O P Q R S T U V W X Y Z

Buckethead - 32nd Degree tab

Tuning: Eb Ab Db Gb Bb eb

main rhythm
twice
|------------------------------------------------------|
|------------------------------------------------------|
|------------------------------------------------------|
|------------------------------------------------------|
|--5\4--5\4--5\45\4------------------------------------|
|--3\2--3\2--3\23\2------------------------------------|

then play this twice
|------------------------------------------------------|
|------------------------------------------------------|
|------------------------------------------------------|
|------------------------------------------------------|
|--4\3--4\3--4\34\3------------------------------------|
|--2\1--2\1--2\12\1------------------------------------|

then this and repeat
|------------------|
|------------------|
|------------------|
|------------------|
|--4\3~~~~~~-------|
|--2\1~~~~~~-------|
Tap to rate this tab
# A B C D E F G H I J K L M N O P Q R S T U V W X Y Z