Song name
# A B C D E F G H I J K L M N O P Q R S T U V W X Y Z

Buckethead - Spider Crawl tab

Beginning - Tapping Mostly You Can Pluck If You Want
--13--11--0------------------------------------------------------------|
------------13--11--0--------------------------------------------------|
----------------------15--13--12--0------------------------------------|
------------------------------------15--13--12--15--13--12-------------|
-----------------------------------------------------------------------|
-----------------------------------------------------------------------|

------------------------------------------------------------------------|
------------------------------------------------------------------------|
------------------------------------------------------------------------|
------------------------------------------------------------------------|
--15--13--12--/11--15--13--12--/11--------------------------------------|
-----------------------------------15--13--12--/11--15--13--12--/11--/5-|
Chorus I Guess... Repeat Twice
-----------------------------------------------------------------------|
-----------------------------------------------------------------------|
-----------------------------------------------------------------------|
--------555555--666--555-333------555555--111--555--333--555-----------|
--333------------------------333---------------------------------------|
-----------------------------------------------------------------------|
Repeat Twice Then.....
-----------------------------------------------------------------------|
-----------------------------------------------------------------------|
-----------------------------------------------------------------------|
-----------------------------------------------------------------------|
--------555555--666--555-333------555555--111--555--333--555-----------|
--333------------------------333---------------------------------------|
Repeat Twice Then Buckethead Goes Into Scratching...
-----------------------------------------------------------------------|
-----------------------------------------------------------------------|
-----------------------------------------------------------------------|
--------555555--666--555-333------555555--111--555--333--555-----------|
--333------------------------333---------------------------------------|
-----------------------------------------------------------------------|
Then In The Backround Of The Scratching The Other Guitarist Goes
-----------------------------------------------------------------------|
-----------------------------------------------------------------------|
-----------------------------------------------------------------------|
-----------------------------------------------------------------------|
--333-33--444--333--33--444--333--33--444--333--33--444--333-----------|
--333-33--444--333--33--444--333--33--444--333--33--444--333-----------|

-----------------------------------------------------------------------|
-----------------------------------------------------------------------|
-----------------------------------------------------------------------|
-----------------------------------------------------------------------|
--444--333--33--444--333-33--------------------------------------------|
--444--333--33--444--333-33--------------------------------------------|
Then He Changes It Up A Little.....
-----------------------------------------------------------------------|
-----------------------------------------------------------------------|
-----------------------------------------------------------------------|
--------555555--666--555-333------555555--111--555--333--555-----------|
--333------------------------333---------------------------------------|
-----------------------------------------------------------------------|

-----------------------------------------------------------------------|
-----------------------------------------------------------------------|
-----------------------------------------------------------------------|
--------555555--888--555-666--555----555555--111--555--333--555--------|
--333------------------------------------------------------------------|
-----------------------------------------------------------------------|
Then More Scratching And This In The Backround
-----------------------------------------------------------------------|
-----------------------------------------------------------------------|
-----------------------------------------------------------------------|
-----------------------------------------------------------------------|
333-333-444-333---333-333-444-333---333-333-444-333---333-333-444-333--|
333-333-444-333---333-333-444-333---333-333-444-333---333-333-444-333--|
Then This Again
-----------------------------------------------------------------------|
-----------------------------------------------------------------------|
-----------------------------------------------------------------------|
--------555555--666--555-333------555555--111--555--333--555-----------|
--333------------------------333---------------------------------------|
-----------------------------------------------------------------------|

-----------------------------------------------------------------------|
-----------------------------------------------------------------------|
-----------------------------------------------------------------------|
--------555555--888--555-666--555----555555--111--555--333--555--------|
--333------------------------------------------------------------------|
-----------------------------------------------------------------------|
Then He Scratches Again And The Song Ends On Him Scratching Up The Fretboard
Tap to rate this tab
 
# A B C D E F G H I J K L M N O P Q R S T U V W X Y Z