Song name
# A B C D E F G H I J K L M N O P Q R S T U V W X Y Z

Buckethead - Post Office tab

Post Office Buddy by Buckethead 
from Giant Robot 

tabbed by Limpy Hodzic 

------------------------------------------------------------ 
------------------------------------------------------------ 
------------------------------------------------------------ 
------------------------------------------------------------ 
-2--3-----6---2-2-2--3----6----2-3-----6--2-2-2-3--2-------- 
-0--1--0--4---0-0-0--1-0--4----0-1--0--4--0-0-0-1--0-------- 

then this weird chord comes 

-0--------------------- 
---1------------------- 
-----1----------------- 
-------0--------------- 
----------------------- 
-----------------------
Tap to rate this tab
# A B C D E F G H I J K L M N O P Q R S T U V W X Y Z