Song name
# A B C D E F G H I J K L M N O P Q R S T U V W X Y Z

Buckethead - Padmasana tab

-------------------------------------------------------------------------------
                             Padmasana - Buckethead
-------------------------------------------------------------------------------
Tabbed by: RoseofPain13

Tuning: Eb Ab Db Gb Bb Eb

Learning this song today I realised the existing tabs of this have the right notes but 
the completely wrong frets. The song was recorded with the tuning a half-step down and 
playing it this way means you can use more open strings which leads to it sounding much smoother.

I have only tabbed the chords and not tabbed the solo as it's too long and you can find 
that in other tabs.

     Amadd9                                   Fsus2

eb|--------------------------|----------------------------|
Bb|--------------0-----------|----------------------------|
Gb|--------5--------5--------|--------------0-------------|
Db|-----2-----2--------2-----|--------3-------3-----------|
Ab|--0--------------------0--|-----3-----3-------3--------|
Eb|--------------------------|--1--------------------1----|

Bridge (5:03)

         C                                                  Cmaj7

eb|----------------0-------------|---------------7-------------------|
Bb|---------8---------8----------|---------8---------8---------------|
Gb|------9-----9---------9-------|-----9------9---------9------------|
Db|--10---------------------10---|-10----------------------10--------|
Ab|------------------------------|-----------------------------------|
Eb|------------------------------|-----------------------------------|

         Fmaj7

eb|---------------0-----------|-------------------------------------|
Bb|--------6---------6--------|-------------------------------------|
Gb|-----------5---------5-----|-------------------------------------|
Db|-----7------------------7--|-------------------------------------|
Ab|--8------------------------|-------------------------------------|
Eb|---------------------------|-------------------------------------|



************************************

| /   slide up
| \   slide down
| h   hammer-on
| p   pull-off
| ~   vibrato
| +   harmonic
| x   Mute note
| b   Bend
| pb  Pre-bend
| br  Bend release
| pbr Pre-bend release
| brb Bend release bend

************************************
Tap to rate this tab
 
# A B C D E F G H I J K L M N O P Q R S T U V W X Y Z