Guitaretab - guitar tabs
Song name
# A B C D E F G H I J K L M N O P Q R S T U V W X Y Z

Buckethead - Revenge Of The Double-man tab

-----------------------------------------------------------------------------
     Revenge of the Double-Man - Buckethead
-----------------------------------------------------------------------------

Tabbed by: Thomas ElstrÝm
Email: wasted_x@hotmail.com

[ Tab from: http://www.guitaretab.com/b/buckethead/50148.html ]
Tuning: Standard tuning
                         
e|-----||------------------------||
B|-----||------------------------||
G|-----||------------------------||
D|-----||------------------------||
A|-----||---4444-3~--------------||
E|-14\-||-0-2222----0-5-0-4-0-3--||

e|---------------------------------||
B|---------------------------------||
G|-12-0-0-12-0-12-0-0-13-0-11-0-0--||
D|---------------------------------||
A|---------------------------------||
E|---------------------------------||

e|-------------||
B|-------------||
G|-------------||
D|-------------||
A|-4444-3~-44--||
E|-2222----22--||


| /  slide up
| \  slide down
| h  hammer-on
| p  pull-off
| ~  vibrato
| +  harmonic
| x  Mute note
=============================================================================
Related for Revenge Of The Double-man tab