Song name
# A B C D E F G H I J K L M N O P Q R S T U V W X Y Z

Buckethead - Frozen Brains Tell No Tales tab

----------------------------------------------------------------------------
			     Frozen Brains Tell No Tales
                                    -Buckethead
---------------------------------------------------------------------------
Tabbed by: Azizzle
Email: identity_crisis19@hotmail.com

Tuning:
half-step down (Eb, Ab, Db, Gb, Bb, Eb)

Intro/Main RiffA:
e:-----------------------------------|
B:-----------------------------------|
G:-----------------------------------| <-- X4
D:-------4--4--5---------------------|
A:-----2----------5~-----2-----------|
E:-0-3---------------0-3---0-0-0-0-0-|

Main RiffB:
e:-------------|-----------------------------------|
B:-------------|-----------------------------------|
G:-------------|-----------------------------------|
D:-------------|-----------------------------------|<-- X4
A:-------------|-------2--5--2--2------2--3--2---2-|
E:---18\----3--|---0-3--3-----3----0-3--3------3---|

Main RiffA:
e:-----------------------------------|
B:-----------------------------------|
G:-----------------------------------| <-- X4
D:-------4--4--5---------------------|
A:-----2---------5~------2-----------|
E:-0-3---------------0-3---0-0-0-0-0-|

Main RiffB:
e:-------------|-----------------------------------|
B:-------------|-----------------------------------|
G:-------------|-----------------------------------|
D:-------------|-----------------------------------|<-- X4
A:-------------|-------2--5--2--2------2--3--2---2-|
E:---18\----3--|---0-3--3-----3----0-3--3------3---|

e:---------------------------------------------------|
B:---------------------------------------------------|
G:---------------------------------------------------|
D:------------1-/20~\1-----------8-9-12-16-18-20~\-3-|
A:-----2---1~--------------2---1---------------------|
E:-0-3---3-------------0-3---3-----------------------|

e:--------------------------------------------------|
B:--------------------------------------------------|
G:--------------------------------------------------|
D:-9-9----------9-9-----------9-9---------9-9-------|<-- X2
A:-7-7--10-12---7-7--10-------7-7--10-12--7-7--10---|
E:----0-8--10------0-8---12<-----0-8--10-----0-8----|

Main RiffB:
e:-----------------------------------|
B:-----------------------------------|
G:-----------------------------------|
D:-----------------------------------|<-- X4
A:-------2--5--2--2------2--3--2---2-|
E:---0-3--3-----3----0-3--3------3---|

Main RiffA:
e:-----------------------------------|
B:-----------------------------------|
G:-----------------------------------| <-- X4
D:-------4--4--5---------------------|
A:-----2---------5~------2-----------|
E:-0-3---------------0-3---0-0-0-0-0-|


Main RiffB:
e:-------------|-----------------------------------|
B:-------------|-----------------------------------|
G:-------------|-----------------------------------|
D:-------------|-----------------------------------|<-- X4
A:-------------|-------2--5--2--2------2--3--2---2-|
E:---18\----3--|---0-3--3-----3----0-3--3------3---|

e:---------------------------------------------------|
B:---------------------------------------------------|
G:---------------------------------------------------|
D:------------1-/20~\1-----------8-9-12-16-18-20~\-3-|
A:-----2---1~--------------2---1---------------------|
E:-0-3---3-------------0-3---3-----------------------|

e:--------------------------------------------------|
B:--------------------------------------------------|
G:--------------------------------------------------|
D:-9-9----------9-9-----------9-9---------9-9-------|<-- X2
A:-7-7--10-12---7-7--10-------7-7--10-12--7-7--10---|
E:----0-8--10------0-8---12<-----0-8--10-----0-8----|

e:-----------------------------------------------------------------|
B:-----------------------------------------------------------------|
G:-----------------------------------------------------------------|
D:-----------------------------------------------------------------|<-- X4
A:-----2--7~7~7~7~7~------2-9~9~9~9~9~-----2-5~5~5~5~5~---2-3-3-2-2|
E:-0-3----------------0-3--------------0-3-------------0-3-------3-|

Main RiffB:
e:-----------------------------------|
B:-----------------------------------|
G:-----------------------------------|
D:-----------------------------------|<-- X4
A:-------2--5--2--2------2--3--2---2-|
E:---0-3--3-----3----0-3--3------3---|


Main RiffA(with slight change):
e:-------------------------------|
B:-------------------------------|
G:-------------------------------| 
D:-------4--4--5-----------------|
A:-----2---------5~------2-------|
E:-0-3---------------0-3---0-----|

Solo:
Sorry about this but I only  know a little bit of it, i'll put it on anyway.

e:----21b----21b---21b-------------------------------------|
B:-18-----18-----18----16b18r15----------------------------|
G:------------------------------16-11-12-11----------------|
D:------------------------------------------14-14-12-12-14-|
A:---------------------------------------------------------|
E:---------------------------------------------------------|

Then i don't know the middle part :(.

With killswitch: (if u dont have a kilswitch, palm mute and pick normally)

e:----------------------------------------------------------------------|
B:----------------------------------------------------------------------|
G:--------------7-7-7---------------------------------------------------|
D:--------5-5-5------10-10-10-9-10-9-9-------5h7-7-5-5-5-4-4-4-4--------|
A:-7-7-7-7----------------------------7-7-7-7-------------------5-5-5-5-|
E:----------------------------------------------------------------------|


e:----------------------------------------------------------------------|
B:----------------------------------------------------------------------|
G:---------------7-7-7-7-9-9--------------------------------------------|
D:---------5-5-5-------------9-10-9-9--9-10-12--------------------------|
A:-7-7-7-7-------------------------------------10--9-9-10-9-7-7-5-5-7-7-|
E:----------------------------------------------------------------------|

e:----------------------------------------------------------------------|
B:----------------------------------------------------------------------|
G:--------------7-7-7---------------------------------------------------|
D:--------5-5-5------10-10-10-9-10-9-9-------5h7-7-5-5-5-4-4-4-4--------|
A:-7-7-7-7----------------------------7-7-7-7-------------------5-5-5-5-|
E:----------------------------------------------------------------------|
Thats all I know sory about the rest of the solo.

Legend:
h-hammer on
b-bend
r-release
<-pick scrape from note to end of the string.
~-vibrato
/-slide up 
\-slide down





Tap to rate this tab
# A B C D E F G H I J K L M N O P Q R S T U V W X Y Z