Song name
# A B C D E F G H I J K L M N O P Q R S T U V W X Y Z

Buckethead - Nottingham Lace tab

Nottingham Lace
_____________________________________________________________________
UPDATE!:  now that UG have expanded the amount of columns in there text tabs, i can post
solo with NO NOTES MISSING!!

this tab is now 100% the same as the guitar pro version.
_____________________________________________________________________

This is pretty much just a txt version of my Guitar pro tab.
its set out so that all the rhythm guitar parts are first, then the lead in the lower
of the tab.
Enjoy.

FYI: If something says play  4.5 Times, play the riff the 4 times, then the first half.

Intro [ 0:00 - 0:19 ] (Play 4 Times)

     S  S S S S S S  S S S S S E  E     S  S S S S S S  T T S  S S S E  E
D||----------------------------------|-------------------------------------|
A||----------------------------------|-------------------------------------|
F||----------------------------------|-------------------------------------|
C||----------------------------------|-------------------------------------|
G||----------------------------0-----|-------------------------------0-----|
C||--4s-5---4-----3s-4---3-----0-----|--4s-5---4-----3s-4-x-4p-3-----0-----|


Riff 2 (backing) [ 0:20 - 0:34 ] (Play 3 Times)

   E  S  E  S  E  S  E  S  S  S  E      E  S  E  S  E  S E  S S  S E
--10----10----10--L-13--x-13-15-13--|--10----10----10--L-8--x-8-10-8--|
------------------------------------|---------------------------------|
---7-----7-----7--L-10----10-----L--|---7-----7-----7--L-5----5----L--|
------------------------------------|---------------------------------|
------------------------------------|---------------------------------|
------------------------------------|---------------------------------|


Riff 3 (backing) [ 0:34 - 0:48 ] (Play 3 Times)


  Q.      Q    Q    E      Q.      Q    Q    E
-----------------------|------------------------|
-----------------------|------------------------|
-----------------------|------------------------|
--0------10----8----7--|--12------10----8----7--|
--0------10----8----7--|--12------10----8----7--|
--0------10----8----7--|--12------10----8----7--|

Riff 3.5 (ends on) [ 0:48 - 0:52 ] (Play 1 Time)

  Q.      Q    Q     E     Q.     Q    Q    E
------------------------|------------------------|-----|
------------------------|------------------------|-----|
------------------------|------------------------|-----|
--12------10----8----7--|--12----10----8----7----|-----|
--12------10----8----7--|--12----10----8----7----|-----|
--12------10----8----7--|--12----10----8----7----|-----|


Intro Riff [ 0:52 - 1:09 ] (Play 4 Times)

  S  S S S S S S  S S S S S E  E     S  S S S S S S  T T S  S S S E  E
----------------------------------|-------------------------------------|
----------------------------------|-------------------------------------|
----------------------------------|-------------------------------------|
----------------------------------|-------------------------------------|
----------------------------0-----|-------------------------------0-----|
--4s-5---4-----3s-4---3-----0-----|--4s-5---4-----3s-4-x-4p-3-----0-----|

Riff 4 (funk)(with Wah)[ 1:09 - 1:26 ] (Play 2 Times)

  Q    E  S S S S  E   E  S S    Q    E  S S S S  E   E  S S
----------x-x-x-x---------x-x-|----------x-x-x-x---------x-x-|
----------x-x-x-x-12--12--x-x-|----------x-x-x-x-14--12--x-x-|
----------x-x-x-x-12--12--x-x-|----------x-x-x-x-14--12--x-x-|
------------------------------|------------------------------|
------------------------------|------------------------------|
--0----0----------------------|--0----0----------------------|


                                Improvised
 Q    E  S S S S  E   E  S S   S          S  E   E   S S S  S  E   E  S S
---------x-x-x-x---------x-x-|--x----------x---------------------------x-x-|
---------x-x-x-x-14--12--x-x-|--x----------x-12--14--12-----12-14--12--x-x-|
---------x-x-x-x-14--12--x-x-|--x----------x-12--14--12-----12-14--12--x-x-|
-----------------------------|---------------------------------------------|
-----------------------------|---------------------------------------------|
-0----0----------------------|----------------------------0----------------|

Riff 5 (with Wah)[ 1:26 - 1:45 ] (Play 2 Times)

  E  S E  S E  S E  S E  E     E  S E  S E  S E  S E  E
----------------------------|----------------------------|
----------------------------|----------------------------|
----------------------------|----------------------------|
----------------------------|----------------------------|
----------------------------|----------------------------|
--5--5-5--5-5--5-5--5-6--4--|--5--5-5--5-5--5-5--5-6--4--|


  E  S E  S E  S E  S E  E     E  S E  S E  S S E  S S E
----------------------------|-----------------------------|
----------------------------|-----------------------------|
----------------------------|-----------------------------|
----------------------------|-----------------------------|
----------------------------|-----------------------------|
--5--5-5--5-5--5-5--5-6--4--|--5--5-5--5-5--8-8-8--6-6-6--|


Riff 6 [ 1:45 - 2:03 ] (Play 8 Times)

  PM  PM     PM PM
  E   E  E.  E  E.  E  E
--------------------------|
--------------------------|
--------------------------|
--4s--5--5---6--5---x--x--|
--4s--5--5---6--5---x--x--|
--4s--5--5---6--5---x--x--|


Riff 7 [ 2:02 - 6:30ish ] (Play 8 Times)

   E   E   E   E   E   E   E   E
----------------------------------|
----------------------------------|
--14--10--14--10---9--10--12---9--|
--12--12--12--12--10--10--10--10--|
----------------------------------|
----------------------------------|

Riff 8 [ 2:20 - 6:30ish ] (Play 28.5 Times)

   E   E   E   E   E   E   E   E      E   E   E   E   E   E   E   E
----------------------------------|----------------------------------|
----------------------------------|----------------------------------|
--14--10--14--10---9--10--12---9--|--14--10--14--10---9--10--12---9--|
--12--12--12--12--10--10--10--10--|--12--12--12--12--10--10--10--10--|
----------------------------------|----------------------------------|
----------------------------------|----------------------------------|


   E   E   E   E   E   E   E   E     E  E   E  E   E   E   E   E
----------------------------------|-------------------------------|
----------------------------------|-------------------------------|
--14--10--14--10---9--10--12---9--|--7--9--10--7---9--10--12---9--|
--12--12--12--12--10--10--10--10--|--8--8---8--8--10--10--10--10--|
----------------------------------|-------------------------------|
----------------------------------|-------------------------------|

Riff 9 [ 2:20 - 6:30ish ] (Play 28 Times)

  H        H           H        H           H        H
--------------------|--------------------|--------------------|
--------------------|--------------------|--------------------|
--7--------5--------|--7--------5--------|--7--------5--------|
--7--------5--------|--7--------5--------|--7--------5--------|
--5--------3--------|--5--------3--------|--5--------3--------|
--------------------|--------------------|--------------------|


  H        H           H        H           H        H
--------------------|--------------------|--------------------|
--------------------|--------------------|--------------------|
--3--------5--------|--7--------5--------|--7--------5--------|
--3--------5--------|--7--------5--------|--7--------5--------|
--1--------3--------|--5--------3--------|--5--------3--------|
--------------------|--------------------|--------------------|


Riff 2/3 (lead) [ 0:20 - 0:34 ] (Play 5.5 Times)

  Q.       Q     Q     E      Q.       Q     Q     E
-----------20----18----17--|--22~------20----18----17--|
--15~----------------------|---------------------------|
---------------------------|---------------------------|
---------------------------|---------------------------|
---------------------------|---------------------------|
---------------------------|---------------------------|

Riff 6 (lead) [ 1:45 - 2:03 ] (Play 7 Times)

(bend the 18 on G string a semitone on the 4th repeat)

   E   S  S  S  S  S  S  Q     E   S  S
----------------------------------------|
----------------------------------------|
------------------------18~----L--------|
--17--17-18-19-18-17-16-----------17-17-|
----------------------------------------|
----------------------------------------|

Riff 6 (Lead end) (play once)

   E   S  S  S  S  S  S  H
-----------------------------------|
-----------------------------------|
------------------------18~--------|
--17--17-18-19-18-17-16------------|
-----------------------------------|
-----------------------------------|


SOLO [ 2:38 - 6:30ish ]

I HEAVILY suggest getting guitarpro or tuxguitar (can import gp files)
as it is SO much easyer to read.

anyways GOODLUCK!!

             Random slidy stuff
  Q    Q     E                   E  E    S  S    Q    Q     Q    E   S  S    Q     E.
S Q    E   S  S
----------------------------------------------|---------------------------|-------------------------------|
----------------------------------------------|---------------------------|-------------------------------|
----------------------------------------/9-10-|--9----L~----7----L~--9-10-|--9b----Lh~---10-7----L~--9-10-|
------------------------------------8\--------|---------------------------|-------------------------------|
-------------------------------\10------------|---------------------------|-------------------------------|
------------12\-------------------------------|---------------------------|-------------------------------|


   H         S   E.   Q        H         Q     E  S  S    H         Q.     S  S    Q
  S E  Q    S  S
---------------------------|---------------------------|------------------------|----------------------------|
--13b--------Lh-13---11----|--10---------L~----L-------|------------------------|----------------------------|
---------------------------|----------------------9-10-|--9b--------7------9-10-|--9----12---10-7--L----9-10-|
---------------------------|---------------------------|------------------------|----------------------------|
---------------------------|---------------------------|------------------------|----------------------------|
---------------------------|---------------------------|------------------------|----------------------------|


                                                                        SH
  H         Q.      E      H          E   E   S  S  S  S     Q.         Q        E   S  SS  S
-----------------------|-----------------12--12-13-12-13-|--15b------<>15pb~----13--12-13-12-13-|
-----------------------|--13b--------10------------------|--------------------------------------|
--9b--------7------10--|---------------------------------|--------------------------------------|
-----------------------|---------------------------------|--------------------------------------|
-----------------------|---------------------------------|--------------------------------------|
-----------------------|---------------------------------|--------------------------------------|


   H         E    E   S  S  S  S     Q.       E   E.    E.   E       H        E   S  S
 E   T  T
--15b--------Lh--13--12-13-12-13-|--15b------15--13p---12---12b--|---L--------L--12-13-12-13--12-13-|
---------------------------------|-------------------------------|----------------------------------|
---------------------------------|-------------------------------|----------------------------------|
---------------------------------|-------------------------------|----------------------------------|
---------------------------------|-------------------------------|----------------------------------|
---------------------------------|-------------------------------|----------------------------------|


              SH
   Q.         Q       E   S   S  S   S     H.               E   S  S     E   E   Q.
E   E   E
--15b------<>15br----13--12h-13-13h-15-|--15brb------------13--12-13-|--13--15--15b------15--13--12--|
---------------------------------------|-----------------------------|-------------------------------|
---------------------------------------|-----------------------------|-------------------------------|
---------------------------------------|-----------------------------|-------------------------------|
---------------------------------------|-----------------------------|-------------------------------|
---------------------------------------|-----------------------------|-------------------------------|


                                                          |--3--|
   H.             Q        Q      S. S. S  S  S  S  S  S  S  S  S  T  T
--12b------------------|------------------------------------------------|
-----------------------|--17b----15-17-18-17-18-17-15-17-18-17-18-17-18-|
-----------------14----|------------------------------------------------|
-----------------------|------------------------------------------------|
-----------------------|------------------------------------------------|
-----------------------|------------------------------------------------|


   |--6--|  |--6--|  |--6--|  |--6--|  |--6--|  |--6--|
   S  S  S  S  S  S  S  S  S  S  S  S  S  S  S  S  S  S  T  T  T  T  T  T  T  T
--------------------------------------15-17-15----15-17-15-17-18-17-------------|
--17-18-17-15-------15-17-18-15-17-18----------18-------------------17-18-17-15-|
--------------17-15-------------------------------------------------------------|
--------------------------------------------------------------------------------|
--------------------------------------------------------------------------------|
--------------------------------------------------------------------------------|


   |--3--|                    |--3--|  |--3--|                 |--3--|  |--3--|  |--3--|
   S  S  S  E.   S.  S. S  S  S  S  S  S  S  S  T  T  T  T     S  S  S  S  S  S  S  S  S
H             S  S
-----------20b---L--20-18-17----17-18-17-18-17----18-17----|-------------------------------------------------|
--17-18-20-------------------20----------------20-------20-|--18-20-18---------------------------------------|
-----------------------------------------------------------|-----------19-17-19-17-15-12-14brb~--------14-15-|
-----------------------------------------------------------|-------------------------------------------------|
-----------------------------------------------------------|-------------------------------------------------|
-----------------------------------------------------------|-------------------------------------------------|


   S  S  S  S  S  S  S  S  S  S  S  S  Q         S  S  S  S  S  E.   E   S  E.   S  S
---------------------------------------------|----------------------------------------|
--18----18----18----------18-20-18----18~----|--18-20-18-17-18-17---17--18-17---------|
-----15----14----15-14-15----------15--------|----------------------------------14-15-|
---------------------------------------------|----------------------------------------|
---------------------------------------------|----------------------------------------|
---------------------------------------------|----------------------------------------|


                                                                |---3--|
   S  S  S  S  S  S  S  S  S  S  S  S  S S  S S      Q      S   S  S   S   E   T. T. S. Q
------------------------------------------------|---------------------------------------------|
--18-20-18----18-20-18----18----15----15--------|-----------------------------17-19-20-20b----|
-----------15----------15----15----15----7-12-7-|--/10~----15h-17-15h-17s-19------------------|
------------------------------------------------|---------------------------------------------|
------------------------------------------------|---------------------------------------------|
------------------------------------------------|---------------------------------------------|


   7   7 7 7  7  7  7  7  7  7  7  7  7  7  7  7  7  7  7  7  7  7  7  7  7  7  7  7
   S   S S S  S  S  S  S  S  S  S  S  S  S  S  S  S  S  S  S  S  S  S  S  S  S  S  S
----------------------17-18-17-------17-18-20-18-17----------20-18-17----------------|
--20br-L-L-L-17-18-20----------20-18----------------20-18-17----------20-18-17-18-20-|
-------------------------------------------------------------------------------------|
-------------------------------------------------------------------------------------|
-------------------------------------------------------------------------------------|
-------------------------------------------------------------------------------------|


   7  7  7  7  7  7  7  7  7  7  7  7  7  7  7  7  7  7  7  7  7  7  7  7  7  7  7  7
   S  S  S  S  S  S  S  S  S  S  S  S  S  S  S  S  S  S  S  S  S  S  S  S  S  S  S  S
--17-------17-18-17----17-18-17-------17-18-20-18-17----------20-18-17----------------|
-----20-17----------20----------20-17----------------20-19-17----------20-18-17-18-20-|
--------------------------------------------------------------------------------------|
--------------------------------------------------------------------------------------|
--------------------------------------------------------------------------------------|
--------------------------------------------------------------------------------------|


   7  7  7  7  7  7  7  7  7  7  7  7  7  7  7  7  7  7  7  7  7  7  7  7  7  7  7  7
   S  S  S  S  S  S  S  S  S  S  S  S  S  S  S  S  S  S  S  S  S  S  S  S  S  S  S  S
--17-------17-18-17----17-18-17-------20-18-17----------20-18-17-------20-18-17-------|
-----20-17----------20----------20-17----------20-18-17----------20-18----------20-18-|
--------------------------------------------------------------------------------------|
--------------------------------------------------------------------------------------|
--------------------------------------------------------------------------------------|
--------------------------------------------------------------------------------------|


   7  7  7  7  7  7  7  7  7  7  7  7  7   7  7  7  7  7  7  7  7  7  7 7 7 7   7  7
   S  S  S  S  S  S  S  S  S  S  S  S  S   S  S  S  S  S  S  S  S  S  S S S S   S  S
-------------------------------------------------------------------------------------|
--17-18-17-18-17-15-13-17-13-15------------------------------------------------------|
--------------------------------17-15-14s-12-14-15-14-12-15-14-15-14-12-L-L-0s-10-12-|
-------------------------------------------------------------------------------------|
-------------------------------------------------------------------------------------|
-------------------------------------------------------------------------------------|


   7  7  7  7  7  7  7  7  7  7  7  7  7  7  7  7  7  7  7  7  7  7  7  7  7  7  7  7
   S  S  S  S  S  S  S  S  S  S  S  S  S  S  S  S  S  S  S  S  S  S  S  S  S  S  S  S
-----------------------------------------------------------------17-18-17-15----------|
--------------------------------------------------------17-18-15-------------18-20-18-|
--14-12-10-12-15-12-14-15-14-12-10-12-14-15-17-19-17-19-------------------------------|
--------------------------------------------------------------------------------------|
--------------------------------------------------------------------------------------|
--------------------------------------------------------------------------------------|


   7  7  7  7  7  7  7 --- 5  5  5  5
   S  S  S  S  S  S  S  S  S  S  S  S  Q      S  S  S  S
--17-18-17-15-------20-18-17----------20b----20-18-17-15-|
--------------18-17----------20-18-17--------------------|
---------------------------------------------------------|
---------------------------------------------------------|
---------------------------------------------------------|
---------------------------------------------------------|


   7  7  7  7  7  7  7  7  7  7  7  7  7  7  7  7  7  7  7  7  7  7  7  7  7  7  7  7
   S  S  S  S  S  S  S  S  S  S  S  S  S  S  S  S  S  S  S  S  S  S  S  S  S  S  S  S
--17-15-17-15-17-15-13-12-13-12----13-12----------------------------------------------|
--------------------------------15-------15-13-11-13-15-13-11-------------------------|
--------------------------------------------------------------14-12-14-12-------------|
--------------------------------------------------------------------------15-19-15-19-|
--------------------------------------------------------------------------------------|
--------------------------------------------------------------------------------------|


   7  7  7  7  7  7  7  7  7  7  7  7  7  7  7  7  7  7  7  7  7  7  7  7  7  7  7  7
   S  S  S  S  S  S  S  S  S  S  S  S  S  S  S  S  S  S  S  S  S  S  S  S  S  S  S  S
-----------------------------------------------------------------------------------13-|
--------------------------------------------------------------13-11-13-15-17-15-17----|
--------------------------------------------------10-12-14-15-------------------------|
--17-19-17-15-17-15-14-17-15-14-12-14-12-10-12-14-------------------------------------|
--------------------------------------------------------------------------------------|
--------------------------------------------------------------------------------------|


   7   7   7   7   7  7   7 7  7   7  7   7  7   7   7  7   7  7   7   7  7   7  7  7   77   7  7
   S   S   S   S   S  S   S S  S   S  S   S  S   S   S  S   S  S   S   S  S   S  S  S   SS   S  S
--10h-12h-13p-12p-10p-8h-12-8-12p-10p-8h-12p-8h-12p-10p-8h-12p-8h-12p-10p-8h-12p-8-12p-10p-8h-12p-8h-|
-----------------------------------------------------------------------------------------------------|
-----------------------------------------------------------------------------------------------------|
-----------------------------------------------------------------------------------------------------|
-----------------------------------------------------------------------------------------------------|
-----------------------------------------------------------------------------------------------------|


   7   7  7   7  7   7   7  7   7  7   7   7  7   7  7  7  7  7  7  7  7  7  7  7  7  7 7 7
   S   S  S   S  S   S   S  S   S  S   S   S  S   S  S  S  S  S  S  S  S  S  S  S  S  S S S
--12p-10p-8h-12p-8h-12p-10p-8h-12p-8h-12p-10p-8h-12-15-17-15----15-18-17-18-17-15-------8h-12-|
-------------------------------------------------------------18-------------------18-15-------|
----------------------------------------------------------------------------------------------|
----------------------------------------------------------------------------------------------|
----------------------------------------------------------------------------------------------|
----------------------------------------------------------------------------------------------|


   7   7  7   7  7   7   7  7   7  7   7   7  7   7  7  7  7  7  7  7  7  7  7  7  7  7  77
   S   S  S   S  S   S   S  S   S  S   S   S  S   S  S  S  S  S  S  S  S  S  S  S  S  S  SS
--12p-10p-8h-12p-8h-12p-10p-8h-12p-8h-12p-10p-8h-12-15-17-15-13-15-18-17-18-17-15-13----------|
-------------------------------------------------------------------------------------15-13-17-|
----------------------------------------------------------------------------------------------|
----------------------------------------------------------------------------------------------|
----------------------------------------------------------------------------------------------|
----------------------------------------------------------------------------------------------|


   7  7  7  7  7  7  7  7  7  7  7  7  7  7
   S  S  S  S  S  S  S  S  S  S  S  S  S  S  Q.       E      E   E   E   Q     Q     E
  E   E   E   Q     Q     E
---------------------------------------------------------|----------13--12----13--------|----------13--12----13--------|
--15-13-17-13-15-13--------------------------------------|------------------------------|------------------------------|
--------------------15-14-15-14-15-14-15-------------12--|--12--14------------------12--|--12--14------------------12--|
-----------------------------------------15-12~----------|------------------------------|------------------------------|
---------------------------------------------------------|------------------------------|------------------------------|
---------------------------------------------------------|------------------------------|------------------------------|


   E   E   E   Q     Q     E        Q     E   H          E      E   E   E   Q     Q     E
----------13--12----13----13br--|---L----13--12~------------|----------13--12----13--------|
--------------------------------|---------------------------|------------------------------|
--12--14------------------------|-----------------------12--|--12--14------------------12--|
--------------------------------|---------------------------|------------------------------|
--------------------------------|---------------------------|------------------------------|
--------------------------------|---------------------------|------------------------------|


   E   E   E   Q     E   E   S  S     E   E   E   Q     E   E   E      Q     Q         E
 E   E   S  S
----------13--12----13--13--------|----------13--12----13--15--15b--|--L----15pbr~----15--13--12--13-12-|
----------------------------------|---------------------------------|-----------------------------------|
--12--14--------------------12-12-|--12--14-------------------------|-----------------------------------|
----------------------------------|---------------------------------|-----------------------------------|
----------------------------------|---------------------------------|-----------------------------------|
----------------------------------|---------------------------------|-----------------------------------|


   E   E   E   E   E   Q      E       E   E   E   Q     Q     S  S     E   E   E   Q     E E   E
--------------13--12--13~---------|----------13--12----13----------|----------13--12----13--15--15b--|
----------------------------------|--------------------------------|---------------------------------|
--14--12--14-----------------12~--|--12--14------------------12-12-|--12--14-------------------------|
----------------------------------|--------------------------------|---------------------------------|
----------------------------------|--------------------------------|---------------------------------|
----------------------------------|--------------------------------|---------------------------------|


        |-----7-----|  |-----7-----|  7  7  7  7
  Q     S  S  S  S  S  S  S  S  S  S  S  S  S  S  E    E      E   E   E   H           S  S
--L----15-13-15-13-12-15-13-12-13-12----------------------|----------13--12br--------------|
-------------------------------------15-17-15-17-15~------|--------------------------------|
------------------------------------------------------12--|--12--14------------------12-12-|
----------------------------------------------------------|--------------------------------|
----------------------------------------------------------|--------------------------------|
----------------------------------------------------------|--------------------------------|


                                                                                      |--3--|
   E   E   Q     H              E   E   E   Q     E   E   E        H         S. S  S. S
 S  E
----------13----12br--------|----------13--12----13--15--15brb--|--L--------13-12-13-12-13-12-----|
----------------------------|-----------------------------------|-----------------------------13--|
--12--14--------------------|--12--14---------------------------|---------------------------------|
----------------------------|-----------------------------------|---------------------------------|
----------------------------|-----------------------------------|---------------------------------|
----------------------------|-----------------------------------|---------------------------------|


   S  E.   E   H          E      E   E   E   S  S  E   E   E   E      S  E.   E   E   S  SS  Q       S
----------13--12br--------L--|----------13--12-13-12--------------|----------13--12--13-12-13-15br----13-|
-----------------------------|------------------------13----------|--------------------------------------|
--12-14----------------------|--12--14--------------------12--12--|--12-14-------------------------------|
-----------------------------|------------------------------------|--------------------------------------|
-----------------------------|------------------------------------|--------------------------------------|
-----------------------------|------------------------------------|--------------------------------------|


   7  7  7  7  7  7  7  7  7  7  7  7  7  7 7  7  7  7  7  7  7
   S  S  S  S  S  S  S  S  S  S  S  S  S  S S  S  S  S  S  S  S E    S  S     S  E.   E
H          S  S
--15-13-15-13-12-10-13-10-13-12------------------------10-12-10-L~--------|----------13--12br--------L----|
--------------------------------15-13-11-10-8-10-11-13--------------------|-------------------------------|
--------------------------------------------------------------------12-12-|--12-14---------------------14-|
--------------------------------------------------------------------------|-------------------------------|
--------------------------------------------------------------------------|-------------------------------|
--------------------------------------------------------------------------|-------------------------------|


  S  S  S  E   E   Q    E.    E      E   E   E   E   S  S  S  E.   T  T  T  T
----------15--13--12----L~-------|----------13--12--13-12-13-15---13-15-13-12-|
---------------------------------|--------------------------------------------|
--L-14-14--------------------12--|--12--14------------------------------------|
---------------------------------|--------------------------------------------|
---------------------------------|--------------------------------------------|
---------------------------------|--------------------------------------------|


   7  7  7  7  7  7  7  7  7  7  7  7 7  7 7 7 7 7 7 7 7
   S  S  S  S  S  S  S  S  S  S  S  S S  S S S S S S S S Q        S  E.   E   H          SS
--10-13-12-10-13-10-12-10-------------------------------------|----------13--12br--------L-----|
--------------------------13-11-11-10-8----8-6-5-6-3-6-5-3----|--------------------------------|
----------------------------------------10--------------------|--12-14---------------------14~-|
--------------------------------------------------------------|--------------------------------|
--------------------------------------------------------------|--------------------------------|
--------------------------------------------------------------|--------------------------------|


   E   E   E   E    Q.      S  S     E   E   E   Q    E  E  E       Q     H           E
 S  S
------15--13--15s--17------------|----------13--12----8---------|--------12br-------------17-15-|
---------------------------------|-----------------------8--8s--|--10----------------10/--------|
---L-----------------------12-12-|--12--14----------------------|-------------------------------|
---------------------------------|------------------------------|-------------------------------|
---------------------------------|------------------------------|-------------------------------|
---------------------------------|------------------------------|-------------------------------|


   7  7  7  7  7  7  7  7  7  7  7  7  7  7  7  7  7  7  7  7  7  7  7  7  7  7  7  7
   S  S  S  S  S  S  S  S  S  S  S  S  S  S  S  S  S  S  S  S  S  S  S  S  S  S  S  S
--17-15-17-18-17-15----------------15-17-22-------15-17-15----------------------------|
--------------------18-17-15-17-18----------17-18----------18-17-15-17-18-17-15-17-18-|
--------------------------------------------------------------------------------------|
--------------------------------------------------------------------------------------|
--------------------------------------------------------------------------------------|
--------------------------------------------------------------------------------------|


   7  7  7  7  7  7  7  7  7  7  7  7  7  7  7  7  7  7  7  7  7  7  7  7  7  7  7  7
   S  S  S  S  S  S  S  S  S  S  S  S  S  S  S  S  S  S  S  S  S  S  S  S  S  S  S  S
-----------15-17-18-17-18-17-15-17-18-15----------15-17-15----------------------------|
--15-17-18-------------------------------18-17-15----------18-17-15-17-18-17-15-------|
--------------------------------------------------------------------------------17-15-|
--------------------------------------------------------------------------------------|
--------------------------------------------------------------------------------------|
--------------------------------------------------------------------------------------|


   7  7  7  7  7  7  7  7  7  7  7  7  7  7  7  7  7  7  7  7  7  7  7  7  7  7  7  7
   S  S  S  S  S  S  S  S  S  S  S  S  S  S  S  S  S  S  S  S  S  S  S  S  S  S  S  S
--------------------------------------------------------------------------------------|
--------------------------------------------------------------------------------------|
--14-15-14-15-17-15-14----------------------------------------------------------------|
-----------------------17-15-14-15-17-15-14-12----------------------------12-14-15-14-|
-----------------------------------------------15-13-12-10-12-13-12-13-15-------------|
--------------------------------------------------------------------------------------|


   Q       S  S  S  S  T  T  T  T  S T T  T  T  T  T  S T T     T  T  T  E    T  T  T
     S.  T  T  T  E
------------------------------------------------------------|---------------------------------------------------|
----------------------15-13----13b-----L-15-13----13b-----L-|--15-13----13b--15-13----13b------L--15-13----13b--|
----------------14-15-------15-----------------15-----------|--------15------------15-------------------15------|
--12~----/12-14---------------------------------------------|---------------------------------------------------|
------------------------------------------------------------|---------------------------------------------------|
------------------------------------------------------------|---------------------------------------------------|


   |--3--|
   S  S  S  H          S  E    S  S   S     E    S  S  S   S  S   S  S   S  S  S   S  S. S.
----------------------10------10-----10-|-------10-10-----10-----10-----10-10-----10-15-17-|
--15-13----13b-----------13b-----13b----|--13b--------13b----13b----13b-------13b----------|
--------15------------------------------|--------------------------------------------------|
----------------------------------------|--------------------------------------------------|
----------------------------------------|--------------------------------------------------|
----------------------------------------|--------------------------------------------------|


   3  |-----7-----|  7  7 --- |--3--|  3  3  3  3  3
   S. S  S  S  S  S  S  S  S  S  S  S  S  S  S  S  S  S  Q         E   E   E   Q     Q.
--18-15-17-18-12-13-12-----------------------------------------|----------13--12----12br------|
-----------------------15-11-13-11-13-11-----------------------|------------------------------|
-----------------------------------------14-12-14-15-10--------|--12--14----------------------|
--------------------------------------------------------12~----|------------------------------|
---------------------------------------------------------------|------------------------------|
---------------------------------------------------------------|------------------------------|


   E   E   E   E   E   Q      S  S     E   E   E   Q     Q      E     E  S   S  E  S  S
 E  Q
----------13--15--13--12~----------|----------13--12----12b----10--|--L--8s-10s-8--3s-5s-3--1-------|
-----------------------------------|-------------------------------|---------------------------3----|
--12--14---------------------12-12-|--12--14-----------------------|--------------------------------|
-----------------------------------|-------------------------------|--------------------------------|
-----------------------------------|-------------------------------|--------------------------------|
-----------------------------------|-------------------------------|--------------------------------|


   Q     E   E  E    E   E  E     E   E    E    E  E.   S  Q       Q     Q    E    E   E
 E
-------------------------------|--------------------------------|-----------------------------|
-------------------------------|--------------------------------|-----------------------------|
--/7----12--10--9s--10s--9--7--|--L--10s--14s--10--9---10s-9----|--7----10----9s--10s--9------|
-------------------------------|--------------------------------|-------------------------/7--|
-------------------------------|--------------------------------|-----------------------------|
-------------------------------|--------------------------------|-----------------------------|


                                            |--3--|  |--3--|  |--3--|
  E   S  S  Q      E   S  S  S  S  S  S     S  S  S  S  S  S  S  S  S  H          S  S
-------------------------13-15----15-17-|--17-15-13-17-15-13-17-15-13-13b--------15-13-|
-----------------/13--15-------15-------|----------------------------------------------|
-----------10---------------------------|----------------------------------------------|
--L--10-12------------------------------|----------------------------------------------|
----------------------------------------|----------------------------------------------|
----------------------------------------|----------------------------------------------|


   7  7  7  7  7  7  7  7  7  7  7  7  7  7  7  7  7  7  7  7  7  7  7  7  7   7   7  7
   S  S  S  S  S  S  S  S  S  S  S  S  S  S  S  S  S  S  S  S  S  S  S  S  S   S   S  S
--15-17--L-15-17-15-13-12-13----------------------12-13-15-13-15-17-13-15-17s-18s-17-15-|
-----------------------------17-15-17-15-13-17-15---------------------------------------|
----------------------------------------------------------------------------------------|
----------------------------------------------------------------------------------------|
----------------------------------------------------------------------------------------|
----------------------------------------------------------------------------------------|


   E    S   E.   T  S  E    S   E.   T  S  S     E.   T   S  E   Q    E  S T  S  S
--17s--18s-17---17-18------------------------|-------------------------------12-13-|
----------------------17s--18s-17---17-18----|-------------------------------------|
------------------------------------------15-|--14---14s-15-14---------------------|
---------------------------------------------|------------------12---------L-------|
---------------------------------------------|-------------------------------------|
---------------------------------------------|-------------------------------------|


   E   S  E   S  S  S  E   S  E   S  S  S     E   S   E   S  S  S  E   S  Q    S     E
 E.   E   E   S  E.   E
--17--18-17-------------------------------|--------------------------------------|--17--18-17-----------------------|
-------------18-17-15-17--18-17---L-------|--------------------------------------|--------------17--17--18-17-------|
------------------------------------17-15-|--14--15s-14--12----------------------|------------------------------14--|
------------------------------------------|-----------------15--L-14--15-14----L-|----------------------------------|
------------------------------------------|--------------------------------------|----------------------------------|
------------------------------------------|--------------------------------------|----------------------------------|


   H         Q    E   S  S     E   E   E   H           E     Q     E   E   Q.        S  S
---------------------------|----------13--12br------------|-------15--13--12br------------|
---------------------------|--------------------------10--|--L----------------------------|
--14~-------------L--12-12-|--12--14----------------------|-------------------------12-12-|
---------------------------|------------------------------|-------------------------------|
---------------------------|------------------------------|-------------------------------|
---------------------------|------------------------------|-------------------------------|


                                        SH                        SH        PH
      PH
   E   E   E   E.   S  S. S. S. S.      H         H               Q         Q         Q
      Q
----------13--12b---L-13-12-13-12-|--<>13b--------L~--------|--<>13b~----<>13b~----<>13b~----<>13b~----|
----------------------------------|-------------------------|------------------------------------------|
--12--14--------------------------|-------------------------|------------------------------------------|
----------------------------------|-------------------------|------------------------------------------|
----------------------------------|-------------------------|------------------------------------------|
----------------------------------|-------------------------|------------------------------------------|


   |-----3-----|     |-----3-----|     |-----3-----|     |-----3-----|
   E     E     E     E     E     E     E     E     E     E     E     E        Q      Q
 H
--13pb--13pb--13pb--13pb--13pb--13pb--13pb--13pb--13pb--13pb--13pb--13pb--|--13b----13----12b~--------|
--------------------------------------------------------------------------|---------------------------|
--------------------------------------------------------------------------|---------------------------|
--------------------------------------------------------------------------|---------------------------|
--------------------------------------------------------------------------|---------------------------|
--------------------------------------------------------------------------|---------------------------|


  Q     E.   S  S  S  S  S  S  E.      E.   E      S  Q      E   Q        S  S E  E  E
     S   S
--L----12---13-13-15-13-12-13-10b---|--L---10pbr-----10~-----L--------|--10----8-----8-----------------|
------------------------------------|-------------13------------10----|---L-10----8--------------------|
------------------------------------|---------------------------------|-----------------10------10s-12-|
------------------------------------|---------------------------------|--------------------------------|
------------------------------------|---------------------------------|--------------------------------|
------------------------------------|---------------------------------|--------------------------------|


   S  S E  E  E   E  E   E   S  S     E    E   Q.       S  S  S  S S   S
--10----8-----8------8------------|--------------------------------------|
-----10----8----------------------|--------------------------------8s-10-|
-----------------10-----10--10-12-|--12s--14-----------------10-12-------|
----------------------------------|-----------12~------10-12-------------|
----------------------------------|--------------------------------------|
----------------------------------|--------------------------------------|


                   |-----7-----|  |-----7-----|  7  7  7  7
   S  S  S  S  E   S  S  S  S  S  S  S  S  S  S  S  S  S  S  T  T  T  T
------------------12-13-12-10-12-15-12-13-15-13-12-10-13-12-10-13-15-12-|
--13-10-13-10-13--------------------------------------------------------|
------------------------------------------------------------------------|
------------------------------------------------------------------------|
------------------------------------------------------------------------|
------------------------------------------------------------------------|


   7  7  7  7  7  7  7  7  7  7  7  7  7  7  7  7  7  7  7  7  7  7  7  7  7  7  7  7
   S  S  S  S  S  S  S  S  S  S  S  S  S  S  S  S  S  S  S  S  S  S  S  S  S  S  S  S
--13-15-13-12-10-12-15-12-13-15-13-12-10-12-13-12-13-15-13-12-10----------------------|
-----------------------------------------------------------------13-11-10-11-13-15-13-|
--------------------------------------------------------------------------------------|
--------------------------------------------------------------------------------------|
--------------------------------------------------------------------------------------|
--------------------------------------------------------------------------------------|


   7  7  7  7  7  7  7  7  7  7  7  7  7 7  7  7  7  7  7  7  7  7  7  7  7  7  7  7
   S  S  S  S  S  S  S  S  S  S  S  S  S S  S  S  S  S  S  S  S  S  S  S  S  S  S  S
--10-12-15-10-12-15-12----------------10-8-10-12-13-15-13-10-12-15-13-15-13-12-13-10-|
-----------------------13-11-10-11-13------------------------------------------------|
-------------------------------------------------------------------------------------|
-------------------------------------------------------------------------------------|
-------------------------------------------------------------------------------------|
-------------------------------------------------------------------------------------|


   7  7  7  7 7  7  7  7  7 7  7  7  7 7  7  7 7  7  7  7 7
   S  S  S  S S  S  S  S  S S  S  S  S S  S  S S  S  S  S S  S  S S  S    W
    W
--13-------------------------------------------------------------------|-------------------|-------------------|-------|
-----10-11-10-8--------------------------------------------------------|-------------------|-------------------|-------|
----------------10-12-10-----------------------9-10-12-10-9-12-10-9-10-|--9----------------|--L----------------|-------|
-------------------------10-8-10-12-10-8-10-12-------------------------|-------------------|-------------------|-------|
-----------------------------------------------------------------------|-------------------|-------------------|-------|
-----------------------------------------------------------------------|-------------------|-------------------|-------|


-------|-------|-------|-------|-------|-------|-------|-------|-------||
-------|-------|-------|-------|-------|-------|-------|-------|-------||
-------|-------|-------|-------|-------|-------|-------|-------|-------||
-------|-------|-------|-------|-------|-------|-------|-------|-------||
-------|-------|-------|-------|-------|-------|-------|-------|-------||
-------|-------|-------|-------|-------|-------|-------|-------|-------||


Duration Legend
---------------
W - whole
H - half
Q - quarter
E - 8th
S - 16th
T - 32nd
X - 64th
. - note dotted
|-n-|  - n-tuplets


Tablature Legend
----------------
L - tied note
x - dead note
g - grace note
(n) - ghost note
> - accentuded note
NH - natural harmonic
AH - artificial harmonic
TH - tapped harmonic
SH - semi harmonic
PH - pitch harmonic
h - hammer on
p - pull off
b - bend
br - bendRelease
pb - preBend
pbr - preBendRelease
brb - bendReleaseBend
\n/ - tremolo bar dip
\n - tremolo bar dive
-/n - tremolo bar Release up
/n\ - tremolo bar inverted dip
/n - tremolo bar return
-\n - tremolo bar Release down
S - shift slide
s - legato slide
/ -  slide into from below or out of upwards
\ -  slide into from above or out of downwards
~ - vibrato
W - wide vibrato
tr - trill
TP - tremolo picking
T - tapping
S - slap
P - pop
< - fade in
^ - brush up
v - brush down
Tap to rate this tab
# A B C D E F G H I J K L M N O P Q R S T U V W X Y Z