Song name
# A B C D E F G H I J K L M N O P Q R S T U V W X Y Z

Buckethead - Botnus tab

Help us improve GuitareTab! Take a short survey!
Botnus Tab
I have tried to tab the solo but i cant get it right

Intro

e|-----------------------------------|
C|-----------------------------------|
G|-----------------------------------|
C|--7-5-7-10-5-7-7--7--7-------------|
G|--7-5-7-10-5-7-7--7--7-------------|
C|-----------------------------------|


Verse I
 
e|---------------------------------------------|
C|---------------------------------------------|
G|---------------------------------------------|
C|---------------------------------------------|
G|------2-------2-------2---3-3-3-3-5-5-3-3----|
C|-0-00---0--00---0--00---0--------------------| x8


Chorus (Couldnt get this part right)

e|------------------|
C|------------------|
G|------------------|
C|------------------|
G|-0-0--0----0-0-0--|
C|-0-0--0-8--0-0-0--| x4


Verse 2
e|---------------------------------------------|
C|---------------------------------------------|
G|---------------------------------------------|
C|---------------------------------------------|
G|------2-------2-------2---3-3-3-3-5-5-3-3----|
C|-0-00---0--00---0--00---0--------------------| x8


e|---------------------------------------------|
C|---------------------------------------------|
G|------2-------2-------2---3-3-3-3-5-5-3-3----|
C|-0-00---0--00---0--00---0--------------------|
G|---------------------------------------------|
C|---------------------------------------------| x2

e|------2-------2-------2---3-3-3-3-5-5-3-3----|
C|-0-00---0--00---0--00---0--------------------|
G|---------------------------------------------|
C|---------------------------------------------|
G|---------------------------------------------|
C|---------------------------------------------| x2

Any Comments or Corrections Email me At Fullmetal_Rocker2000@yahoo.com
Related for Botnus tab