Song name
# A B C D E F G H I J K L M N O P Q R S T U V W X Y Z

Buckethead - Giant Robot tab

                                 Giant Robot                                   

                                                                  Godly Moose
Make sure you get the timing right, or it will sound like, bleh. 
                                                                          
E||----------------------|------------------------|----------------------|
B||----------------------|------------------------|-------3--------------|
G||----------------------|-------------4b---2--4--|--5r------5--4--------|
D||-------------------2--|--5----4--2-------------|----------------------|
A||--2--------3----2-----|------------------------|----------------------|
E||----------------------|------------------------|----------------------|


                                                                      
----------------------|------------------------|---------------------|
----------------------|------------------------|---------------------|
----------------------|-------------4b---2--4--|--5r-------4----2----|
-------------------2--|--5----4--2-------------|---------------------|
--2--------3----2-----|------------------------|---------------------|
----------------------|------------------------|---------------------|


                                                                       
--------------------------------------|-------------------------------|
--------------------------------------|-------------------------------|
----0-4-2-4-0-4-5-7-7-7-5-4-7----5----|--5-5-5-7-5-4-7---2-2-4-2-0----|
--0-----------------------------------|----------------0--------------|
--------------------------------------|-------------------------------|
--------------------------------------|-------------------------------|


                                                                              
-------------------------------------|--------------------------------------||
-------------------------------------|--------------------------------------||
--0-0-9-9-9-9-9-7-5-5-5-5-5-4--------|--0----0-9-9-9-9-9-7-7------2-2-4-2-0-||
-------------------------------------|-----------------------0--------------||
-------------------------------------|--------------------------------------||
-------------------------------------|--------------------------------------||


Tap to rate this tab
# A B C D E F G H I J K L M N O P Q R S T U V W X Y Z