Song name
# A B C D E F G H I J K L M N O P Q R S T U V W X Y Z

Buckethead - Sketches Of Spainfor Miles tab

-------------------------------------------------------------------------------
			     Sketches of Spain
                                 Buckethead
-------------------------------------------------------------------------------
Tabbed by:Matt
Email:Mateoitaliano555@yahoo.com

Tuning:Half Step Down


Intro/Rythm(palm muted)

Classical
eb|----------------|
Bb|----------------|
Gb|--------0-------|
Db|----------------|
Ab|----3------3----|
Eb|-0--------------|


Lead 1(classical

eb|------7p5-7-----7--8--10--12-10--8-7h8p7--5-7------|
Bb|---------------------------------------------------|
Gb|---------------------------------------------------|
Db|---------------------------------------------------|
Ab|---------------------------------------------------|
Eb|---------------------------------------------------|

eb|------7--8--10--12--14--7--8--8h10p8-7-5-----------|
Bb|---------------------------------------------------|
Gb|---------------------------------------------------|
Db|---------------------------------------------------|
Ab|---------------------------------------------------|
Eb|---------------------------------------------------|


eb|------8--7--5-----5-7------------5---------------------|
Bb|----------------8-----5-5--5-7-8---8\4---8p7-7-7h8p7\5-|
Gb|-------------------------------------------------------|
Db|-------------------------------------------------------|
Ab|-------------------------------------------------------|
Eb|-------------------------------------------------------|

Repeat with electric guiter with some gnar gnar effects on it.

buckethead also strums and picks Am, Em, and D

| /  slide up
| \  slide down
| h  hammer-on
| p  pull-off
| ~  vibrato
| +  harmonic
| x  Mute note
===============================================================================
Tap to rate this tab
 
# A B C D E F G H I J K L M N O P Q R S T U V W X Y Z