Song name
# A B C D E F G H I J K L M N O P Q R S T U V W X Y Z

Buckethead - Haunted Mansion Theme tab

there r 2 intros 2 this thing, the hard 1 and the easy 1
Remeber 2 use distortion
and if u wanna make it sound really kool
4 the easy 1 bend each note




EASY 1 (the wussy way)
Eb|--------------------------||
Bb|--------------------------||
Gb|--------------------------||
Db|--------------------------||
Ab|-4-3----------4-5-4-------||
Eb|2---4--2-5-7-3-----5-7-3-2||




Hard 1 (the man way)
Eb|----------------|----------------|----------------|----------------|
Bb|----------------|----------------|----------------|----------------|
Gb|----------6-----|-5--------------|----------------|----------------|
Db|--4-------6-----|-5-------6------|-4-------7------|-9-------5------|
Ab|--4-------4-4-4-4-3-3-3-3-6------|-4-------7------|-9-------5------|
Eb|--2-2-2-2-------|---------4-4-4-4|-2-2-2-2-5-5-5-5|-7-7-7-7-3-3-3-3|

Eb|----------------|----------------|----------------|----------------||
Bb|----------------|----------------|----------------|----------------||
Gb|-6-------7------|-6--------------|----------------|----------------||
Db|-6-------7------|-6-------7------|-9-------5------|-4--------------||
Ab|-4-4-4-4-5-5-5-5|-4-4-4-4-7------|-9-------5------|-4--------------||
Eb|----------------|---------5-5-5-5|-7-7-7-7-3-3-3-3|-2--------------||
Tap to rate this tab
# A B C D E F G H I J K L M N O P Q R S T U V W X Y Z