Song name
# A B C D E F G H I J K L M N O P Q R S T U V W X Y Z

Buckethead - Humans Vanish tab

Buckethead - Humans Vanish

Guitar 1
e--------------------------------------------------|
B--18----18----------16----18----18----21-18-21-18-|
G-----18----18-17-18----17----18----18-------------|  x4
D--------------------------------------------------|
A--------------------------------------------------|
E--------------------------------------------------|

Guitar 2
e--------------------------------------------------|
B--------------------------------------15----15----|        
G--16----16----------------16----16----------------|  x4
D--------------17----17----------------------------| 
A--------------------------------------------------|
E--------------------------------------------------|

Tap to rate this tab
# A B C D E F G H I J K L M N O P Q R S T U V W X Y Z