Guitaretab - guitar tabs
Song name
# A B C D E F G H I J K L M N O P Q R S T U V W X Y Z

Buckethead - Pure Imagination Live tab

-----------------------------------------------------------------------
Pure Imagination (Live) - Buckethead
-----------------------------------------------------------------------
Tabbed by: A. Wheeler

This is the live version of Pure Imagination preformed at the Langerado Music Festival.  


Tuning: half-step down


e|--15--17-15-17-15-15---14----------7--8-7-8-7------7--10---14--------|
B|-------------------------15--------8----------8----7-------11--------|
G|---------------------------16----------------------7-------11--------|
D|---------------------------------------------------9-----------------|
A|--15-------------------14----------0--------------10-----------------|
E|---------------------------------------------------------------------|

e|--15-14-15-14-----12--14---12--14-12-14-12----12---14---15---16--17|
B|-------------14---12-------12---------------------------------------|
G|------------------11-------13---------------------------------------|
D|------------------9-------------------------14---16---17---18---19--|
A|--------------------------------------------------------------------|
E|--------------------------------------------------------------------|
[ Tab from: http://www.guitaretab.com/b/buckethead/78382.html ]
e|--------------------------------------------------------------------|
B|---------------------7--8-7-8-7-8-7---------------------------------|
G|------7------7----------------------7-------4---5-7-4---------------|
D|----5------5-----5------------------------5------------7-5-4--------|
A|--7------7-----7------------------------7---------------------------|
E|---------------------0----------------------------------------------|

e|-------------------3--5-3-5-3-3---2---------------------------------|
B|------------------------------------3-----0--1-0-1-0-----0--3-------|
G|--------------------------------------4--------------0--------------|
D|--5-4-5-4-5-4-------------------------------------------------------|
A|--------------5----3--------------2-------0-------------------------|
E|---------------------------------------------------------3----------|


e|--2-3-2-3-2-----0-2--0-2-0-2-0----0----2----3---4---5----|
B|--2---------2---0----------------------------------------|
G|--3-------------4----------------------------------------|
D|--4-------------4----------------2---4----5----6---7-----|
A|----------------2----------------------------------------|
E|---------------------------------------------------------|
Related for Pure Imagination Live tab