Song name
# A B C D E F G H I J K L M N O P Q R S T U V W X Y Z

Buckethead - Shape Vs Buckethead tab

shape vs buckethead


E---------21----17----12---9----8----7----6-----------------------------|
G--21-------------------13----------------------------------------------|
B-----------------------------------------------------------------------|
D-----------------------------------------------------------------------|
A---------------------------------------------------------------0b------|
E-------------------------------------------------------------------0---|b


E-----
G-----
B-----
D-----
A--7b-
E-----


E---------------------------------------------------------|
G---------------------------------------------------------|
B-----------------10-b--12--13--10b---11--12--------------|
D--4--4--4--2---------------------------------------------|
A--4--4--4--2------------------------------------------7b-|
E--2--2--2--0---------------------------------------------|
Tap to rate this tab
# A B C D E F G H I J K L M N O P Q R S T U V W X Y Z