Guitaretab - guitar tabs
Song name
# A B C D E F G H I J K L M N O P Q R S T U V W X Y Z

Buckethead - Pirates Life For Me tab

thats the whole song, and its note for note perfect. any comments or requests
email me.

-------7---9----7------------------------4------|
---9----------------10---9--9--7-----5---5------|
---9-------9-------------9--------8------4------|
---9-------7-----------------------------6------|
---7---------------------7-----------7---7------|
-------------------------------7----------------|
[ Tab from: http://www.guitaretab.com/b/buckethead/83665.html ]
--4--4-4-4-4-4-4-4-4-4--4--9---------4---4------|
--5--5-5-5-5-5-4-4-4-4--4-----5---7--4---4------|
--6--6-6-6-6-6-5-5-5-5--5--6---------5---5------|
---------6-----------4---------------4---4------|
--4---------------------------4----------6------|
---------------4-------------------------4------|

--5--5--2---2--4---4------2---2-2-4-4-6-7--7-------|
--7--7--4---4--5---5-5----2-------------7--10------|
--6-----4------4-----6----3-------------8--8-------|
--4------------------6----4-------------9--7-------|
--------2------7-----4----4-------------9--9-------|
--------------------------2-------------7--7-------|

jasonthe13th@hotmail.co.uk
Related for Pirates Life For Me tab
Advertisement will be closed in 10 seconds