Song name
# A B C D E F G H I J K L M N O P Q R S T U V W X Y Z

Buckethead - Seven Laws Of Woo tab

I've tabbed it over a live exhibition, it isn't the album version.


Main Riff (Keep the volume knob to low):
E|-----------------------|-----------------------|
B|-----------------------|-----------------------|
G|*--17~--16~--14~--12~--|-----------12---------*|
D|*----------------------|--12h--14------14~----*|
A|-----------------------|-----------------------|
E|-----------------------|-----------------------|
Close the lick with a slide-out occasionally on the low strings

Variation:
|----------------------|-----------------------|
|----------------------|-----------------------|
|--21~--19~--17~--16~--|-----------12----------|
|----------------------|--12h--14------14~-----|
|----------------------|-----------------------|
|----------------------|-----------------------|


Turn the volume up (let the distortion kicks in, double note at the end, he does this 
live):
E|-----------------------|---------------------------|
B|-----------------------|---------------------------|
G|*--17~--16~--14~--12~--|-----------12-------------*|
D|*----------------------|--12h--14------14~--14----*|
A|-----------------------|---------------------------|
E|-----------------------|---------------------------|

Spice it up with some pentatonic licks:
E|----------------------------------------|-------------------------------------|
B|----------------------------------------|-------------------------------------|
G|--17~--16~--14~--12~-----------12-------|-------------------------------------|
D|----------------------12h--14------14~--|--(12h)--14--12----------------------|
A|----------------------------------------|-----------------14--12--10--12------|
E|----------------------------------------|---------------------------------12--|

2nd Pentatonic Variation:
E|----------------------------------------|-------------------------|
B|----------------------------------------|-------12--15--12--15b~--|
G|--17~--16~--14~--12~-----------12-------|--14b--------------------|
D|----------------------12h--14------14~--|-------------------------|
A|----------------------------------------|-------------------------|
E|----------------------------------------|-------------------------|

E|------------|------------|----------|
B|------------|------------|----------|
G|------------|------------|----------|
D|--4--strum--|--5--strum--|----------| x2
A|--4---------|--5---------|----------|
E|--2---------|--3---------|--5~--3~--|

E|--------------|--------------|--------------|---------------------|
B|--------------|--------------|--------------|---------------------|
G|--------------|--------------|--------------|---------------------| x2
D|--------------|--------------|--------------|---------------------|
A|--4-----4-----|--4-----4-----|--5-----5-----|--5------------------|
E|-----2-----2--|-----2-----2--|-----3-----3--|------5~--3~--2~-----|
(play the last note the second time only)

E|------------|------------|----------|
B|------------|------------|----------|
G|------------|------------|----------|
D|--4--strum--|--5--strum--|----------| x2
A|--4---------|--5---------|----------|
E|--2---------|--3---------|--5~--3~--|

Ok, now improvise a solo in Pentatonic minor and Melodic minor :P
Tap to rate this tab
# A B C D E F G H I J K L M N O P Q R S T U V W X Y Z