Song name
# A B C D E F G H I J K L M N O P Q R S T U V W X Y Z

Buckethead - Warcraft tab

|------|-----------|------|
|------|-----------|------|
|------|-4-2-------|------|
|-7-9--|-----2p0---|-7-9--|
|-7-9--|---------2-|-7-9--|
|-5-7--|-----------|-5-7--|

  TP
|-12b14-17b19-10----17b19-10----17b19-14h15p14----14----|
|----------------12----------12----------------17-------|
|-------------------------------------------------------|
|-------------------------------------------------------|
|-------------------------------------------------------|
|-------------------------------------------------------|
Tap to rate this tab
# A B C D E F G H I J K L M N O P Q R S T U V W X Y Z