Song name
# A B C D E F G H I J K L M N O P Q R S T U V W X Y Z

Buckethead - 5 Card Trick tab

e||--------------------||
b||--------------------||
g||--------------------||
d||--------------------||
a||-3-3-3-3-3-3-3-3-3--||
E||-1-1-1-1-1-1-1-1-1--||

e||-----------------------||
b||-----------------------||
g||-----------------------||
d||------------------3-4--||
a||-3-3-3-3-3-3-3-3--1-2--||
E||-1-1-1-1-1-1-1-1-------||

e||--------------||
b||--------------||
g||--------------||
d||--------------||
a||-----------3--||
E||-3~-3~-3~--1--||

Tap to rate this tab
# A B C D E F G H I J K L M N O P Q R S T U V W X Y Z