Song name
# A B C D E F G H I J K L M N O P Q R S T U V W X Y Z

Buckethead - Armour Piercing Projectile tab

from Funnel Weaver

e||--------------||
b||--------------||
g||--------------||
d||--5-5-5-5--3--||
a||--5-5-5-5--2--||
E||--3-3-3-3--2--||

e||------|-------|-------|-------||
b||------|-------|-------|-------||
g||------|-------|-------|-------||
d||--5-5-|--5-5--|--5-5--|--5-5--||
a||--5-5-|--5-5--|--5-5--|--5-5--||
E||--3-3-|--3-3--|--3-3--|--3-3--||

e||---------------||
b||---------------||
g||---------------||
d||--5-5-5-5--10--||
a||--5-5-5-5--10--||
E||--3-3-3-3--8---||

Tap to rate this tab
# A B C D E F G H I J K L M N O P Q R S T U V W X Y Z