Song name
# A B C D E F G H I J K L M N O P Q R S T U V W X Y Z

Buckethead - All In The Waiting tab

All in the Waiting
from Electric Tears

as tabbed by Simon Nam

To play with recording, tune down a half step to Eb.
This is the ostinato background rhythm.

||---3--------2--------2-----3--------2--------2-----2------|
||------3--------3--------3-----3--------3--------3---------|
||*--------0--------0--------------0--------0---------------|
||*---------------------------------------------------------|
||---------------------------------------------------2------|
||---3--------3--------------3--------3---------------------|

------0--------0-----2--------0--------0-----2--------3-----|
3--------3--------3-----3--------3--------3-----3-----------|
---0--------0--------------0--------0--------------0--------|
------------------------------------------------------------|
------2--------------2--------2--------------3--------3-----|
------------------------------------------------------------|

------3-----2--------3--------3-----3--------2--------2-----|
3--------3-----3--------3--------3-----3--------3-----------|
---0--------------0--------0--------------0--------0--------|
------------------------------------------------------------|
------------3--------3--------------------------------------|
------------------------------------3--------3--------------|

---3--------2--------2------||------------------------------|
3-----3--------3--------3---||------------------------------|
---------0--------0--------*||------------------------------|
---------------------------*||------------------------------|
----------------------------||------------------------------|
---3--------3---------------||------------------------------|
Tap to rate this tab
 
# A B C D E F G H I J K L M N O P Q R S T U V W X Y Z