Song name
# A B C D E F G H I J K L M N O P Q R S T U V W X Y Z

Buckethead - Maguas Scalp tab

Standard Tuning: eadgbe

^ - palm mute

****JUST PAY ATTENTION TO THE RYTHM OF THE STRUMS. MAKE 
SURE THE ACCENT STROKE IS ON THE CORRECT NOTE*****

Riff A
e|----------------------------|
b|----------------------------|
g|---------7---------7--------|
d|-----7---------7------------|
a|-5-55--55--5555--55--5555---|
e|----------------------------|
   ^ ^^^ ^^^ ^^^^^ ^^^ ^^^^       

e|--------------------|
b|--------------------|
g|--------------------|
d|-8-8-7-7------------|
a|--------8-8-7-7-----|
e|--------------------| x8
   ^ ^ ^ ^^ ^ ^ ^

Riff B  (0:21)
e|--------------------------------|
b|--------------------------------|
g|-7\--5\--------------------5----|
d|-7\--5\-----3/5-----8\7----5----|
a|-5\--3\-----3/5-----8\7----3----|
e|------------1/3-----6\7---------|

e|--------------------------------|
b|--------------------------------|
g|-7\--5\-------------------------|
d|-7\--5\-----3/5-----8\7---------|
a|-5\--3\-----3/5-----8\7---------|
e|------------1/3-----6\7---------|  x2

Riff C  (0:31)
e|--------------------------------|
b|--------------------------------|
g|-----7-----7---7------7---5---3-|
d|--------------------------5---3-|
a|-5555--5555--55--5555--55-3---1-|
e|--------------------------------|
   ^^^^  ^^^^  ^^  ^^^^  ^^  
e|--------------------------------------|
b|--------------------------------------|
g|-----7-----7---7------7-----------5---|
d|----------------------------------5---|
a|-5555--5555--55--5555--55----3-33-3---|
e|--------------------------------------| x8
   ^^^^  ^^^^  ^^  ^^^^  ^^    ^ ^^

.....more to come for this TAB!!!!!

Tap to rate this tab
 
# A B C D E F G H I J K L M N O P Q R S T U V W X Y Z