Guitaretab - guitar tabs
Song name
# A B C D E F G H I J K L M N O P Q R S T U V W X Y Z

Buckethead - Lurker At The Threshold Part 3 tab

This isn't the whole thing obviously. I can't do the solo n such : / AS usual for 
songs. I LOVE this one. I hope you guys enjoy this.



 Intro
||---------------------||
||---------------------||
||---------------------||
||--2-0-0--2-0-0-0-0---|| Play 3x
||--2-0-0--2-0-0-0-0---||
||--0-0-0--0-0-0-0-0---||
       . .   . . . .


 Part A
||---------------------------------|
||--------------------6-7-5--------|
||--------------------5-5-5--------|
||--0-0-0-0-0-0-0-0----------------|
||--0-0-0-0-0-0-0-0----------------|
||--0-0-0-0-0-0-0-0----------------|
    . . . . . . . .


----------------------------------------|
---------------------------6-7-5--------|
---------------------------5-5-5--6~~---|
-----0-0-0-0-0-0-0-0--------------------|
-----0-0-0-0-0-0-0-0--------------------|
-----0-0-0-0-0-0-0-0--------------------|
     . . . . . . . .

[ Tab from: http://www.guitaretab.com/b/buckethead/89392.html ]
---------------------------------|
--------------------6-7-5--------|
--------------------5-5-5--------|
--0-0-0-0-0-0-0-0----------------|
--0-0-0-0-0-0-0-0----------------|
--0-0-0-0-0-0-0-0----------------|
  . . . . . . . .


---------------------------------||
---------------------------------||
---------------------------------||
--2-0-0-2-0-0-0------------------||
--2-0-0-2-0-0-0------------------||
--0-0-0-0-0-0-0------------------||
  . . . . . . .

Then later on in the song like at

0:40

 Part B
||---------------------------------------------------------------------||
||---------------------------------------------------------------------||
||----------7-9-10-9~----------7-12-10-9~---------7-9-10-9~---5-4-5----||
||---7-9-10-------------7-9-10-------------7-9-10-------------------5--||
||---------------------------------------------------------------------||
||---------------------------------------------------------------------||

That's all I have.


---------------------
Tab Legend
---------------------
 .  = slightly palm mute
 ~  = Vibrate the note
Related for Lurker At The Threshold Part 3 tab
×
Best way to learn
"Lurker At The Threshold Part 3"