Guitaretab - guitar tabs
Song name
# A B C D E F G H I J K L M N O P Q R S T U V W X Y Z

Buckethead - Pure Immagination tab

this is how i play it im 100% sure this is right
 pure immagination(the willy wona theme)

standard tuning EADGBE

|----------------------------------------------------------------|
|----------------------------------------------------------------|
|-----7-------7--------11-12-11-12-11-12-11----------------------|
|---5--------5-----5------------------------12-------5--9-8-12-9-|
|-7--------7-----7--------------------------------7--------------|
|----------------------------------------------------------------|

[ Tab from: http://www.guitaretab.com/b/buckethead/89824.html ]
|----------------------------------------------------------------|
|-------------------------8-10-8-10-8-7--------------------------|
|---------------------------------------7------4-5-4-5-4---4-7---|
|---7-5-4-5-4-5-4-5-4---------------------9--------------5-------|
|---------------------5------------------------------------------|
|----------------------------------------------------------------|

|-2-3-2-3-2---2-4--0-2-0-2-0-------------------------------------|
|-----------3----------------------------------------------------|
|----------------------------------------------------------------|
|----------------------------------------------------------------|
|----------------------------------------------------------------|
|--------------------------------5-4-7-8--9----------------------|


it sounds a little better if you use a delay pedal with the speed at about 12 o'clock 
at about 10 o'clock and the depth turned all the way up.
Related for Pure Immagination tab
×
Pure Immagination