Guitaretab - guitar tabs
Song name
# A B C D E F G H I J K L M N O P Q R S T U V W X Y Z

Buckethead - Baseball Furies tab

Baseball Furies - Buckethead

Tabbed by: petrucci_owns86
Email: christo10@pacbell.net

Tuning: Drop-B (B-F#-B-E-G#-C#)
Hereís the song Baseball Furies from Bucketheadís album The Elephant Manís Alarm Clock. 
only about 90% sure that this tab is correct, and there are no leads tabbed. Hope you 
fun!

Riff #1 0:00-0:16, 0:37-0:52 (play 3 times)
     * * *   * *   * *   * *   * *   * * *   * *   * * * * * * * *
e|-----------------------------------------------------------------|
B|-----------------------------------------------------------------|
G|-----------------------------------------------------------------|
D|-----------------------------------------------------------------|
A|-5-------------------------------5-------------------------------|
E|---0-0-0-7-0-0-5-0-0-7-0-0-8-0-0---0-0-0-7-0-0-5-0-0-7-8-7-3-5-3-|

Riff #1 Ending 0:16-0:22, 0:52-0:58 (play once)
     * * *   * *   * *   * *   * * * * * * * * * * * * * * * * * *
e|-----------------------------------------------------------------|
B|-----------------------------------------------------------------|
G|-----------------------------------------------------------------|
D|-----------------------------------------------------------------|
A|-5---------------------------------------------------------------|
E|---0-0-0-7-0-0-5-0-0-7-0-0-8-0-0-7-8-7-3-5-3-7-8-7-3-5-3-7-8-7-3-|

Riff #2 w/auto wah effect 0:22-0:31 (play 3 times)
e|-------------------------------------|
B|-------------------------------------|
G|-------------------------------------|
D|-4-4-x-x-----------------------------|
A|-4-4-x-x-----------------------------|
E|-4-4-x-x-6h7p6h7p6-5h6p5h6p5-4h5p4h5-|

Riff #2 w/auto wah effect ending 0:31-0:33 (play once)
e|-------------|
B|-------------|
G|-------------|
D|-4-4-x-x-3---|
A|-4-4-x-x-3---|
E|-4-4-x-x-3---|
[ Tab from: http://www.guitaretab.com/b/buckethead/92931.html ]
Riff #3 0:33-0:36 (play once, pause, then repeat Riff #1 3 times and the ending once)
     * * *   * *   * *
e|-----------------------|
B|-----------------------|
G|-----------------------|
D|-----------------------|
A|-5---------------------|
E|---0-0-0-7-0-0-5-0-0-8-|

Riff #4 w/auto wah effect 0:58-1:09
For this riff, I found that tuning the guitarís lowest string to an A would do the 
This is probably wrong, though.
e|------------------------------------------------|
B|------------------------------------------------|
G|------------------------------------------------|
D|---------4\----------4\----------4\----------4\-|
A|---------2\----------2\----------2\----------2\-|
E|-0-0--1------0-0--1------0-0--1------0-0--1-----|

Riff #5 w/auto wah effect and all palm mutes 1:10-1:32(play 8 times)
e|---------------------------------|
B|---------------------------------|
G|---------------------------------|
D|-3-3-----1-1-----1-1-----1-------|
A|-----3-5-----3-5-----3-5---5-3-5-|
E|---------------------------------|

Riff #6 1:33-1:55 (play 4 times under the solo)
e|-------------------------|
B|-------------------------|
G|-------------------------|
D|-3-3--6----5-5--3--6--5--|
A|-1-1--4----3-3--1--6--5--|
E|-------------------6--5--|

Fill at 1:55-2:01
e|-------------------|
B|-------------------|
G|-------------------|
D|-3--------5--------|
A|-3--------5--------|
E|-3--------5--------|


Riff #7 all palm muted 2:01-2:12 (play 4 times)
e|---------------------------------|
B|---------------------------------|
G|---------------------------------|
D|-------3-3-3-2-2-2---------------|
A|-4-4-4-------------3-3-3-6-6-3-3-|
E|---------------------------------|

Riff #8 all palm muted 2:12-2:35 (play 8 times)
e|-----------------------------------------------------------------|
B|-----------------------------------------------------------------|
G|-----------------------------------------------------------------|
D|-------------3-3-3-3-3-3-2-2-2-2-2-2-----------------------------|
A|-4-4-4-4-4-4-------------------------3-3-3-3-3-3-6-6-6-6-3-3-3-3-|
E|-----------------------------------------------------------------|

| *  palm mute
| /  slide up
| \  slide down
| h  hammer-on
| p  pull-off
| ~  vibrato
| +  harmonic
| x  string mute
=======================================================================
Related for Baseball Furies tab