Song name
# A B C D E F G H I J K L M N O P Q R S T U V W X Y Z

Buckethead - Final Wars tab

Final Wars by Buckethead

Tunning:
6=Bb
5=Eb
4=Ab
3=Db
2=Gb
1=Bb

[ intro ]

1|--------------------------|--------------------------|--------------------------|--------------------------|
2|--------------------------|--------------------------|--------------------------|--------------------------|
3|--------------------------|--------------------------|--------------------------|--------------------------|
4|-----7--3-----------------|-----7--3-----------------|-----7--3-----------------|--------------------------|
5|-----------7--3-----------|-----------7--3-----------|-----------7--3-----------|-----3--2--3--3/5--3------|
6|--5--------------7--3--7--|--5--------------7--3--7--|--5--------------7--3--7--|--1-------------------3---|



1|--------------------------|--------------------------|--------------------------|--------------------------|
2|--------------------------|--------------------------|--------------------------|--------------------------|
3|--------------------------|--------------------------|--------------------------|--------------------------|
4|-----7--3-----------------|-----7--3-----------------|-----7--3-----------------|--------------------------|
5|-----------7--3-----------|-----------7--3-----------|-----------7--3-----------|-----3--2--3--3/5--3------|
6|--5--------------7--3--7--|--5--------------7--3--7--|--5--------------7--3--7--|--1-------------------3---|



1|-------------|-----------------------|-------------|-----------------------|
2|-------------|-----------------------|-------------|-----------------------|
3|-------------|-----------------------|-------------|-----------------------|
4|-------------|-----------4-----------|-------------|-----------4-----------|
5|----------6--|-----6--7-----7--6--4--|----------6--|-----6--7-----7--6--4--|
6|--4----4-----|--4--------------------|--4----4-----|--4--------------------|



1|-------------|--------------------------|-------------------------|
2|-------------|--------------------------|-------------------------|
3|-------------|--------------------------|-------------------------|
4|----------4--|--------------------------|--2/4--1--2--1-----------|
5|-------------|-----------2--------------|----------------2--1-----|
6|--2----2-----|--0--4--5-----5--4--2--0--|----------------------4--|


Any question my mail is the_light_that_blinds_me@hotmail.com
Tap to rate this tab
 
# A B C D E F G H I J K L M N O P Q R S T U V W X Y Z