Guitaretab - guitar tabs
Song name
# A B C D E F G H I J K L M N O P Q R S T U V W X Y Z

Buckethead - Spell Of The Gypsies tab

Tabbed By Claire Wilcox

Excellent song great for beginners, enjoy :)


     B                  F#                G#m
E||---------------------------------------------------------|
B||--4------------------2------------------4----------------|
G||--4------------------3------------------4----------------|
D||--4------------------4------------------6----------------|
A||--2------------------1------------------6----------------|
E||---------------------------------------------------------|



  F#                 E
---------------------------------------------------------|
--7------------------9-----------------------------------|
--6------------------9-----------------------------------|
--8------------------9-----------------------------------|
--9------------------11----------------------------------|
---------------------------------------------------------|


[ Tab from: http://www.guitaretab.com/b/buckethead/94091.html ]
  B              F#            G#m               F#
--------------------------------------------------------------|
--4--------4h-5--2--------------4----------------2------------|
--4--------------3--------------4----------4h-6--3------------|
--4--------------4--------------6----------------4------------|
--2--------------1--------------6----------------4------------|
--------------------------------------------------------------|



                 E          B                F#            G#m
-----------------------------------------------------------------|
-----------------5----------4--------4h-5-------------2h-4-------|
-----------------4----------4----------------6--------------4----|
--4----4h6-------6----------4----------------8--------------6----|
-------7-7-------7----------6----------------9--------------6----|
---------------------------------------------9--------------4----|



           F#
------------------------------------------||
------0h-2--------------------------------||
------------3-----------------------------||
------------4------------------4----4h6---||
------------4-----------------------7-7---||
------------2-----------------------------||

This is just the start of the song, sorry. When i figure out the rest ill post it...

Glittery_burnincinders@hotmail.com



Related for Spell Of The Gypsies tab
Advertisement will be closed in 10 seconds