Song name
# A B C D E F G H I J K L M N O P Q R S T U V W X Y Z

Buckethead - Brewer In The Air tab

Help us improve GuitareTab! Take a short survey!
e---------------------------------------------------|
b---------------------------------------------------|
G---------------------------------------------------|
D----2-0---------------------------4--------4-------|  2x
A--------3-2--------------------2--------2--------2-|
E--0----------0--2/3-2/3-----0--------3--------2----|
     __p.m__                 ______palm muted_______

e------------------------------------------------------------------------------------------|
b------------------------------------------------------------------------------------------|
G------------------------------------------------------------------------------------------|

 4x
A--6/7--7-7--7-7---6/7-6/7--7---7-7--6/7--7--7--------0-2-5-------5---0-2-5-------5--------|
E---0---0-0--0-0----0---0---0---0-0---0---0--0---------------------------------------------|
            _p.m_              _p.m_                  ______________p.m________________

e----------------------------------------------------------------------------------|
b----------------------------------------------------------------------------------|
G--7-7-7-------7-------7-------7-7-7---7-------7-------7-------7-------7-7-7-------|
D--5-5-5--5-5--5--5-5--5--5-5--4-4-5---5--5-5--5--5-5--5--5-5--5--5-5--4-4-5-------|  2x
A--3-3-3--3-3--3--3-3--3--3-3--3-3-3---3--3-3--3--3-3--3--3-3--3--3-3--3-3-3-------|
E----------------------------------------------------------------------------------|
         _p.m_   _p.m_   _p.m_           _p.m_   _p.m_   _p.m_   _p.m_

e-------------------------------------------------------|
b-------------------------------------------------------|
G----------7/9---7/5--4-5-------------7/9---7/5----7----|
D--------5----------------5---------5------------5---4--|
A-----7--------------------------7----------------------|
E--0--------------------------0-------------------------|


e-------------------------------------------------------|
b-------------------------------------------------------|
G----------7/9---7/5--4-5----------7--4-----------------|
D--------5----------------5------7----5-----------------|
A-----7------------------------5------3-----------------|
E--0----------------------------------------------------|

    4x  3x 2x  2x     3x
e---7---8--10--8------------------------------------------------------|
b---8---8--8---8--4x--7--8/7------------------------------------------|
G---9---9--9---9------7-----7-----------------------------------------|
D--------------------------------------------------4--------4---------|
A-----------------------------------------------2--------2--------2---|
E------------------------------0--2-3-2-3----0--------3--------2------|
                                  __p.m__    ___________p.m__________

e---------------------------------------------------|
b---------------------------------------------------|
G---------------------------------------------------|
D----2-0---------------------------4--------4-------|
A--------3-2--------------------2--------2--------2-|
E--0----------0--2/3-2/3-----0--------3--------2----|
     __p.m__                 ______palm muted_______


e-------------------------------------------------------2--|
b----------------------------------------------------3-----|
G-------------------------------------------4-----4--------|
D-------2-0---2------------------0----2--5-----5-----------|
A-----------3---3-2--------3--2-----3----------------------|
E--0-0---------------0---5---------------------------------|
  _______palm muted_______

e------------------------------------------------------2---|
b---------------------------------------------------3------|
G------------------------------------------4-----4---------|
D-------2-0---2---------5-5-5--------2--5-----5------------|
A-----------3---3-2-----3-3-3------3-----------------------|
E--0-0---------------0-------------------------------------|


e--12-0-0-7-0-0-3-0-0-5-0-0-5-3-2-0-12-0-0-7-0-0-3-0-0-8-0-0-7--|
b---------------------------------------------------------------|
G---------------------------------------------------------------|
D---------------------------------------------------------------|
A---------------------------------------------------------------|
E---------------------------------------------------------------|
   ________________________palm muted________________________

e--12-0-0-7-0-0-3-0-0-5-0-0-5-3-2-0-------------------------|
b-----------------------------------5-0-0-5-0-0-5-0-7-3-----|
G-----------------------------------------------------------|
D-----------------------------------------------------------|
A-----------------------------------------------------------|
E-----------------------------------------------------------|
   ________________________palm muted___________________

e--12-0-0-7-0-0-3-0-0-5-0-0-5-3-2-0-12-0-0-7-0-0-3-0-0-8-0-0-7--|
b---------------------------------------------------------------|
G---------------------------------------------------------------|
D---------------------------------------------------------------|
A---------------------------------------------------------------|
E---------------------------------------------------------------|
   ________________________palm muted________________________


e--12-0-0-7-0-0-3-0-0-5-0-0-5-3-2-0----------------------------|
b-----------------------------------5-0-0-5-0-0-5-0-3-0-0-3----|
G--------------------------------------------------------------|
D--------------------------------------------------------------|
A--------------------------------------------------------------|
E--------------------------------------------------------------|
   ________________________palm muted________________________

e----------------------------------------------------------------------------------------------|
b----------------------------------------------------------------------------------------------|
G----------------------------------------------------------------------------------------------|
D----------------------------------------------------------------------------------------------|
A--7-------7-------7---10-------10-------10----7-------7-------7---10-------10-12---------12---|
E----5-5-5---5-5-5---5----8-8-8----8-8-8----8----5-5-5---5-5-5---5----8-8-8-------10-10-10-----|
   _______________________________________palm muted_________________________________________


e-----------------------------------------------------------------------------------------------------------------|
b-----------------------------------------------------------------------------------------------------------------|
G-----------------------------------------------------------------------------------------------------------------|
D-----------------------------------------------------------------------------------------------------------------|
A---14----------14----------14----12----------12----------12------10-------10-------10----10-------10-----10-9----|
E------12-12-12----12-12-12----12----10-10-10----10-10-10----10------8-8-8----8-8-8----8-----8-8-8----7-7---------|
   __________________________________________________palm muted_______________________________________________

guitar1
e--12-12-12-12-7-7-7-7-10-10-10-10-8-8-7-7--------------|
b-------------------------------------------------------|
G-------------------------------------------------------|
D-------------------------------------------------------| 8x
A-------------------------------------------------------|
E-------------------------------------------------------|
   ////////////with killswitch////////////

guitar2
e-------------------------------------------------------|
b-------------------------------------------------------|
G-----------------------5-------------------------------|
D--2--------------------5----------5--------------------|
A--2--------------------3----------5--------------------|
E--0-------------------------------3--------------------|


guitar2
e-------------------------------------------------------|
b-------------------------------------------------------|
G-----------------------7-------------------------------|
D--2--------------------7----------5--------------------|
A--2--------------------5----------5--------------------|
E--0-------------------------------3--------------------|

2x
guitar2
e-------------------------------------------------------|
b-------------------------------------------------------|
G-----------------------5-------------------------------|
D--2--------------------5----------5--------------------|
A--2--------------------3----------5--------------------|
E--0-------------------------------3--------------------|


guitar2
e-------------------------------------------------------|
b-------------------------------------------------------|
G--7--------------------5-------------------------------|
D--7--------------------5-------------------------------|
A--5--------------------3-------------------------------|
E-------------------------------------------------------|


e--------------------------------------------------------------------|
b--------------------------------------10-------------------------8--|
G--7/9-7/9-7/9-7-----------------------11----7/9-7/9-7/9-7------9----|
D-----------------9--7-----7--9--0-----12------------------9-10------| 4x
A-----------------------8--------------------------------------------|
E--------------------------------------------------------------------|


e----------------------------------------------------------------------------------|
b----------------------------------------------------------------------------------|
G--7-7-7-------7-------7-------7-7-7---7-------7-------7-------7-------7-7-7-------|
D--5-5-5--5-5--5--5-5--5--5-5--4-4-5---5--5-5--5--5-5--5--5-5--5--5-5--4-4-5-------|  2x
A--3-3-3--3-3--3--3-3--3--3-3--3-3-3---3--3-3--3--3-3--3--3-3--3--3-3--3-3-3-------|
E----------------------------------------------------------------------------------|
         _p.m_   _p.m_   _p.m_           _p.m_   _p.m_   _p.m_   _p.m_

e--12-0-0-7-0-0-3-0-0-5-0-0-5-3-2-0-12-0-0-7-0-0-3-0-0-8-0-0-7--|
b---------------------------------------------------------------|
G---------------------------------------------------------------|
D---------------------------------------------------------------|
A---------------------------------------------------------------|
E---------------------------------------------------------------|
   ________________________palm muted________________________

e--12-0-0-7-0-0-3-0-0-5-0-0-5-3-2-0-------------------------|
b-----------------------------------5-0-0-5-0-0-5-0-7-3-----|
G-----------------------------------------------------------|
D-----------------------------------------------------------|
A-----------------------------------------------------------|
E-----------------------------------------------------------|
   ________________________palm muted__________________

e--12-0-0-7-0-0-3-0-0-5-0-0-5-3-2-0-12-0-0-7-0-0-3-0-0-8-0-0-7--|
b---------------------------------------------------------------|
G---------------------------------------------------------------|
D---------------------------------------------------------------|
A---------------------------------------------------------------|
E---------------------------------------------------------------|
   ________________________palm muted________________________


e--12-0-0-7-0-0-3-0-0-5-0-0-5-3-2-0----------------------------|
b-----------------------------------5-0-0-5-0-0-5-0-3-0-0-3----|
G--------------------------------------------------------------|
D--------------------------------------------------------------|
A--------------------------------------------------------------|
E--------------------------------------------------------------|
   ________________________palm muted______________________

e----------------------------------------------------------------------------------------------|
b----------------------------------------------------------------------------------------------|
G----------------------------------------------------------------------------------------------|
D----------------------------------------------------------------------------------------------|
A--7-------7-------7---10-------10-------10----7-------7-------7---10-------10-12---------12---|
E----5-5-5---5-5-5---5----8-8-8----8-8-8----8----5-5-5---5-5-5---5----8-8-8-------10-10-10-----|
   _______________________________________palm muted_________________________________________


e-----------------------------------------------------------------------------------------------------------------|
b-----------------------------------------------------------------------------------------------------------------|
G-----------------------------------------------------------------------------------------------------------------|
D-----------------------------------------------------------------------------------------------------------------|
A---14----------14----------14----12----------12----------12------10-------10-------10----10-------10-----10-9----|
E------12-12-12----12-12-12----12----10-10-10----10-10-10----10------8-8-8----8-8-8----8-----8-8-8----7-7---------|
   __________________________________________________palm muted_______________________________________________

e--------------------------------------------------------|
b--------------------------------------------------------|
G--------------------------------------------------------|
D--2-----------------------------------------------------|
A--2-----------------------------------------------------|
E--0-----------------------------------------------------|


please rate
Related for Brewer In The Air tab