Song name
# A B C D E F G H I J K L M N O P Q R S T U V W X Y Z

Buckethead - Plastination Station tab

Help us improve GuitareTab! Take a short survey!
OK I spent Alot of time tabbing a verson in which I sent to his online Fan Page;(Binge 
Site). But they haven't posted it nor will they even E-mail me back when I asked them 
?'s. So I thought might as well Put it Here!!!!!!It's a Great song
Tuning Is Half Step or Eb
Plastination Station
Inbred Mountian
Tabbed By DANIEL C. STRAIN

Intro Low Volume
Eb-------------------------------------------------]
Bb-------------------------------------------------]
Gb--------------4--2-1-----------------------------]
Db------------2~-------2~-------------2-2-2-1~-----]
Ab--------2-4--4-4----------------2-4--0-0-0-------]
Eb--0-2-4-------------------0-2-4------------------]
Turn Up Volume
Eb-------------------------------------------------]
Bb-------------------------------------------------]
Gb--------------4--2-1-----------------------------]
Db------------2--------2--------------2-2-2-1------]X2
Ab--------2-4--4-4----------------2-4--0-0-0-------]
Eb--0-2-4-------------------0-2-4------------------]

Ok this what I got he has some effect on almost sounds like
a chourus delay this the notes but listen to the song.
Im not going to tab this whole part he plays it like this
but sometime not hit a note as many times mixes it up just a bit.
Eb-------------------------------------------------]
Bb-------------------------------------------------]
Gb-----------------4-4--4-2-2-1-1------------------]
Db---------------2----------------2----------------]X2
Ab---4-4-4-2-2-4-----------------------------------]
Eb-------------------------------------------------]

First Solo thing
ok here are the cords he plays in the background
I dont know the rhythm to well but you can figure it
out!!
Eb------0----0-----0-------------------------------]
Bb------5----4-----0-------------------------------]
Gb------4----4-----4-------------------------------]
Db------2----2-----2-------------------------------]
Ab------4----4-----4-------------------------------]
Eb------0----0-----0-------------------------------]

Eb-------------------------------------------------------------]
Bb-------------17s16s14----16s14s12----------------------------]
Gb----------------------------------14-16b14-13h14-------------]
Db----------s14---------13---------(14)-----------14~----------]
Ab-------------------------------------------------------------]
Eb-------------------------------------------------------------]

Eb-------------------------------------16--16-----------------]
Bb-------------17s16s14----16s14s12------14--17~--------------]
Gb------------------------------------------------------------]
Db----------s14---------13------------------------------------]
Ab------------------------------------------------------------]
Eb------------------------------------------------------------]

Eb-------------------------------------------------------------]
Bb-------------17s16s14----16s14s12----------------------------]
Gb----------------------------------14-16b14-13h14-------------]
Db----------s14---------13---------(14)-----------14~----------]
Ab-------------------------------------------------------------]
Eb-------------------------------------------------------------]
                                        ???
Eb------------------------------------------------------------]
Bb-------------17s16s14----16s14s12---------------------------]
Gb------------------------------------14-13~------------------]
Db----------s14---------13------------14-14~------------------]
Ab------------------------------------------------------------]
Eb------------------------------------------------------------]

Eb-------------------------------------------------]
Bb-------------------------------------------------]
Gb-----------------4-4--4-2-2-1-1------------------]
Db---------------2----------------2----------------]X3
Ab---4-4-4-2-2-4-----------------------------------]
Eb-------------------------------------------------]

Eb----------------------------------------------]----------------------------|
Bb----------------------------------------------]----------------9~-12-9-----|
Gb--6--6--6--6--6--6--6--6--6--6--9--9--9~------]-----s13-11-9-11-9----------|
Db--6--6--6--6--6--6--6--6--6--6--9--9--9~------]----------------------------|
Ab--4--4--2--2--4--4--2--2--4--4--7--7--7~------]----------------------------|
Eb----------------------------------------------]----------------------------|
Hard to figure out u try it!! Heres some notes!
Eb-----16~----------------------------------------------------]
Bb---------17--16--14-----------------------------------------]
Gb-------------------------13--11--9-8-9---9------------------]
Db----------------------------------------9-------------------]
Ab------------------------------------------------------------]
Eb------------------------------------------------------------]

Eb-------------------------------------------------]
Bb-------------------------------------------------]
Gb--------------4--2-1-----------------------------]
Db------------2--------2--------------2-2-2-1------]X?
Ab--------2-4--4-4----------------2-4--0-0-0-------]
Eb--0-2-4-------------------0-2-4------------------]
Pick slide and very fast hammer on pull offs!!!
Eb------------------------------]
Bb------------------------------]
Gb
Related for Plastination Station tab