Song name
# A B C D E F G H I J K L M N O P Q R S T U V W X Y Z

Buckethead - Baseball Buddy tab

e||---------------||
B||---------------||
G||---------------||
D||--2----5----9--||
A||--2----5----7--||
E||--0----3----0--||

e||------------------------||
B||------------------------||
G||------------------------||
D||--<7>-------------------||
A||-------9---7------------||
E||---------------9--7--5--||
<----palm mute---->

e||---------------||
B||---------------||
G||---------------||
D||--2----5----9--||
A||--2----5----7--||
E||--0----3----0--||

e||-------------------||
B||-------------------||
G||-------------------||
D||--2----5----9---7--||
A||--2----5----7---5--||
E||--0----3----0---x--||

e||------------------------||
B||------------------------||
G||------------------------||
D||--2-2-2--5---<7>--------||
A||--2-2-2--5-------<5>-5--||
E||--0-0-0--3--------------||
<------palm mute--------->

e|--------------------------------------------------------------------\\--||
B|--------------------------------------------------------------------\\--||
G|--------------------------------------------------------------------\\--||
D|-9-9-9--9--9---7-7-7--7--7------------5-5-5--5--5-----4-4-4--4--4---\\--||
A|-7-7-7--7--7---5-5-5--5--5------------3-3-3--3--3-----2-2-2--2--2---\\--||
E|-x-0-0--x--0---x------x--x------------x--x------x-----x---x-----x---\\--||

e||-------------||
B||-------------||
G||-------------||
D||--2------4---||
A||--2-2-2--2---||
E||--0-0-0------||
<--Palm mute-->

e||---------||
B||---------||
G||---------||
D||--2-2-2--||
A||--2-2-2--||
E||--0-0-0--||


e||---------------||
B||---------------||
G||---------------||
D||--2----5----9--||
A||--2----5----7--||
E||--0----3----0--||

e||-------------------||
B||-------------------||
G||-------------------||
D||--2----5----9---7--||
A||--2----5----7---5--||
E||--0----3----0---x--||

the rest is just work around E G E D & A
Tap to rate this tab
# A B C D E F G H I J K L M N O P Q R S T U V W X Y Z