Song name
# A B C D E F G H I J K L M N O P Q R S T U V W X Y Z

Buckethead - Colma tab

Fig 1:

------------15--------------------15--17--15----------|
--------19------15------------19--------------19------|
----16--------------16----16--------------------------|
------------------------------------------------------|
------------------------------------------------------|
------------------------------------------------------|

Fig. 2:

------------------------------------------------------|
----------5-------------------------------------------|
-------7----------------------------------------------|
----5-------------------------------------------------|
------------------------------------------------------|
------------------------------------------------------|

Fig. 3:

------------15--------------------15--17--------------|
--------19------15------------19----------------------|
----16--------------16----16--------------------------|
------------------------------------------------------|
------------------------------------------------------|
------------------------------------------------------|

Fig. 4:

------------------------------------------------------|
--------------17--------------------------------------|
----16---16--------16---------------------------------|
------------------------------------------------------|
------------------------------------------------------|
------------------------------------------------------|

Here is the song arrangement which could cause your throats major
burnage unless you know:

1. Fig. 1
2. Fig. 2
3. Fig. 3
4. Fig. 2
5. Fig. 1
6. Fig. 2
7. Fig. 1
8. Fig. 2
9. Fig. 1
10.Fig. 2
11.Fig. 1
12.Fig. 2
13.Fig. 3
14.Fig. 2
15.Fig. 4

those obscure effects in between each fig. can be made by scratching
up and down the strings
enjoy.please rate this
Tap to rate this tab
# A B C D E F G H I J K L M N O P Q R S T U V W X Y Z