Song name
# A B C D E F G H I J K L M N O P Q R S T U V W X Y Z

Buckethead - Phantom Monk tab

Help us improve GuitareTab! Take a short survey!
Phantom Monk by Buckethead
from Bucketheadland 

Standard tuning(E A D g b e) 
*tuned down 1/4 step
*use the right hand middle finger to tap the notes (C/C#)

Parts 1 & 3 (let low notes, C/G/G#/E/C#/D#, ring while tapping the c/c#; hold the second 
tapped note until the next low note.)

||------t--t--------t--t--------t--t------t-----||
||-----13-13-------13-13-------14-14-----14-----||
||----------------------------------------------||
||-------------h-----------h--------------------||
||-h----------10----------11-----------h--p---h-||
||-8----------------------------------12--9--11-||

Part 2

||------t--t--------t--t------------------------||
||-----13-13-------13-1312---------------------||
||----------------------sl----------------------||
||-------------h-------------h--p--h--h-----h---||
||-h----------10-------------8--7--8--8--h--8---||
||-8-------------------------------------7------||

Part 4 (let only the c, 17 on the g, ring while hammering on the f# and g) 
h h
||--------------------14-15---------------------||
||-----------t----------------------------------||
||------h---17----------------------------------||
||-----10---------------------------------------||
||-h--------------------------------------------||
||-8--------------------------------------------||


Related for Phantom Monk tab