Song name
# A B C D E F G H I J K L M N O P Q R S T U V W X Y Z

Buckethead - Doomride tab

Artist : Buckethead
Song   : Doomride
Album  : Giant Robot
Tuning :Eb Ab Db Gb Bb Eb

TP means trem picking

Repeat this as needed

         TP      TP      TP      TP
|---(19)-20-(18)-19-(17)-18-(16)-17---------------------------|
|-------------------------------------------------------------|
|o-----------------------------------------------------------o|
|o-----------------------------------------------------------o|
|-------------------------------------------------------------|
|-------------------------------------------------------------|


then the next riff

here he uses a space robot sound, he does it with his guitar synthesizer.
how to make the sound: you have the normal distortion sound, and then you put a
half step tuned up guitar sound with the first sound, so you play like 2 guitars
you can do this on: Digitech RP 2000 and more, unless you have a guitar synthesizer, so 
the riff just repeat it as many times as needed

|------------------------------------------------------------------|
|------------------------------------------------------------------|
|o-----------------------------6-------2-------4-------7--5-------o|
|o----5------1-----3----------------------------------------------o|
|-----------------------2---------4-------6--------3---------------|
|--1-----3------5--------------------------------------------------|

next riff

|---/------------------------15-17-18-17-18-17-15-------------|
|---/---------------------------------------------------------|
|o--/slide on the neck---------------------------------------o|
|o-----------------------------------------------------------o|
|-------------------------------------------------------------|
|-------------------------------------------------------------|
Tap to rate this tab
# A B C D E F G H I J K L M N O P Q R S T U V W X Y Z