Song name
# A B C D E F G H I J K L M N O P Q R S T U V W X Y Z

Buckethead - The Fairy And The Devil tab

Help us improve GuitareTab! Take a short survey!
i was looking for this tab... and i couldnt find it!
so i took the liberty of trying it myself

this is only the cool melody part
maybe someone can use my tab and build off of it for completion?
anyways:

STANDARD TUNING

e---9-11p9-9-11-------------|
b---------------9-----9/11~-|
g---------------------------|
d---------------------------|
a---------------------------|
e---------------------------|


e--1314p13-13----13/14-13\9~-|
b----------------------------|
g----------------------------|
d----------------------------|
a----------------------------|
e----------------------------|


e---9-11p9-9-11-------------|
b---------------9-----9/11~-|
g---------------------------|
d---------------------------|
a---------------------------|
e---------------------------|


e----------------------------------|
b----------------------------------|
g---15~--13-11-10/11-10-6-6/8-6-3~-|
d----------------------------------|
a----------------------------------|
e----------------------------------|
the part above varies from time to time
maybe a hammer on here, or a pull of there
sometimes you wont have to to play the '3', it all depends
once you listen to the song it all makes sense....
Related for The Fairy And The Devil tab