Song name
# A B C D E F G H I J K L M N O P Q R S T U V W X Y Z

Buckethead - Wonka In Slaughter Zone tab

Help us improve GuitareTab! Take a short survey!
Artist	: Buckethead
Song	: Wonka In The Slaughter Zone
Album	: Bucketheadland and Bucketheadland Blueprints
Tuning	: Eb Ab Db Gb Bb Eb

E--15--17--15--17--15--14-------------------------------------------------10-|
B---0--------------------------0--15------------12--13--12--13--12---12------|
G----------------------------------------16-----11-------------------11-12---|
D----------------------------------------------------------------------------|
A----------------------------------------------------------------------------|
E----------------------------------------------------------------------------|


E--14--15--14--15--14-----------------14--12--------13--12--13--12----12-----|
B--12------------------------12-------12-------10---------------------10-----|
G--11-----------------------------11--11--------9--------------------------9-|
D----------------------------------------------------------------------------|
A----------------------------------------------------------------------------|
E----------------------------------------------------------------------------|


E-------13------14-----15------17-------|
B---------------------------------------|
G-------10------11-----12------14-------|
D---------------------------------------|
A---------------------------------------|
E---------------------------------------|

Not sure about these 2 parts
E-------------------------------------14---15---14---15----14------10-----|
B-------------------------------------12------------------------12-----8--|
E--------7-----------7----------------11------------------------11-----7--|
D-----5-----------5---------------5---------------------------------------|
A--7-----------7------------7---------------------------------------------|
E-------------------------------------------------------------------------|


E-----------------------------------------------------------------------2~~--|
B----------3--0--1--3h0------------------------------------------------------|
G--------4---------------------4---2---0-------------------------------------|
D-----5------------------------------------4---4p3--4p3--4p3--4p3------------|
A--7-------------------------------------------------------------------------|
E----------------------------------------------------------------------------|
Related for Wonka In Slaughter Zone tab