Song name
# A B C D E F G H I J K L M N O P Q R S T U V W X Y Z

Buckethead - F-4 Phantom tab

			     F-4 Phantom - Buckethead

Tabbed by: Chris Tognetti
Email: christo10@pacbell.net

Tuning: Drop-C (CGCFAD)
This is the tab for the 0:58 second song F-4 Phantom, by Buckethead. It's off of his
Funnel Weaver. It's pretty easy, as long as you have a fast picking hand. Palm mute every
except the notes on the lead. All guitars are doubled. Listen to the record to get the 
timing.

Riff A (0:04)

e|----------------------------------------------------|
B|----------------------------------------------------|
G|----------------------------------------------------| Play this 4 times
D|----------------------------------------------------|
A|----------------------------------------------------|
E|-0-0-0-0-0-0--0-0-0-0-1-0--0-0-0-0-0-0--0-0-0-0-1-0-|

Riff B (0:20)

e|----------------------------------------------------|
B|----------------------------------------------------|
G|----------------------------------------------------| Play this twice
D|----------------------------------------------------|
A|----------------------------------------------------|
E|-3-3-3-3-3-3--3-3-3-3-4-3--3-3-3-3-3-3--3-3-3-3-4-3-|

Riff C (0:28)

e|----------------------------------------------------|
B|----------------------------------------------------|
G|----------------------------------------------------| Play this twice
D|----------------------------------------------------|
A|----------------------------------------------------|
E|-0-0-0-0-0-0--0-0-0-0-1-0--0-0-0-0-0-0--0-0-0-0-1-0-|

Now, from 0:36 to 0:38, there's a weird little pause of the guitar, while the drum loop
going. The guitars then resume with this:

e|--------------------------------------------------------------------|
B|--------------------------------------------------------------------|
G|--------------------------------------------------------------------|
D|--------------------------------------------------------------------|
A|--------------------------------------------------------------------|
E|-0--0-0-0-0-0-0--0-0-0-0-1-0--0-0-0-0-0-0--0-0-0-0-1-0--0-0-0-0-0-0-|

-------------|
-------------|
-------------|
-------------|
-------------|
-0-0-0-0-1-0-|

Lead thing (0:44)

Gradual bend and release on these notes
e|-----------------------------------------------------------------|
B|-----------------------------------------------------------------|
G|-13b^----------------------------13b^----------------------------|
D|-----------------------------------------------------------------|
A|-----------------------------------------------------------------|
E|-----------------------------------------------------------------|

Riff D (0:52)

e|-----------------------------------------------------------------|
B|-----------------------------------------------------------------|
G|-----------------------------------------------------------------|
D|-----------------------------------------------------------------|
A|-----------------------------------------------------------------|
E|-0-0-0-0-0-0--0-0-0-0-1-0--0-0-0-0-0-0--0-0-0-0-1-0--0-0-0-0-0-0-|

-------------|
-------------|
-------------|
-------------|
-------------|
-0-0-0-0-1-0-|


| /  slide up
| \  slide down
| h  hammer-on
| p  pull-off
| ~  vibrato
| +  harmonic
| x  Mute note
| b^ Bend Up
============================================================================
Tap to rate this tab
 
# A B C D E F G H I J K L M N O P Q R S T U V W X Y Z