Song name
# A B C D E F G H I J K L M N O P Q R S T U V W X Y Z

Buckethead - Game Of Death Theme tab

Buckethead - Game of Death Theme

Tabbed by Ex Mortis Man: http://www.myspace.com/evilrootman


Standard Tuning

~ = Slide
* = Palm Mute

Intro                    Rhythm        Lead
E-----------------------|-------------|---------------|
B-----------------------|-------------|-13-----11--13-|
G--10-----6-----3-------|-10---8--10--|---------------|
D--10--8--6--4--3-------|-10---8--10--|---------------|
A--8---8--4--4--1-------|-8----6--8---|---------------|
E------6-----2----------|-------------|---------------|
Rhythm                      Lead
E--------------------------|------------------------------------------------------------|
B--------------------------|------------------------------------------------------------|
G-10---------3----5--5-----|-----------10--10-----------6--6-------------------8-10-12--|
D-10----6----3----5--5-----|--~7-8-10----------~7-8-10-----------------8-10-11----------|
A-8-----6----1----3--3-----|-----------------------------------8-10-11------------------|
E-------4------------------|------------------------------------------------------------|

E------------16-13-15--13--13----------------------------------------11-13-15--|
B--10-11-13----------------------10-11-13---14-14-----------11-13-14-----------|
G--------------------------------------------------10-12-13--------------------|
D------------------------------------------------------------------------------|
A------------------------------------------------------------------------------|
E------------------------------------------------------------------------------|

Rhythm          Lead       Play twice              Third Time...
E--------------|--17--------------~21-20-19-20-19-|-17------------------------~22-19-21--|
B--------------|-----13--15-17-18-----------------|----13--15-17-18-15-17-18-------------|
G-------7------|----------------------------------|--------------------------------------|
D---7---7----5-|----------------------------------|--------------------------------------|
A---7---5----5-|----------------------------------|--------------------------------------|
E---5--------3-|----------------------------------|--------------------------------------|
Ending Riffs         * * * * * * * * * * * * * * * *
E------------------|--------------------------------------|
B------------------|--------------------------------------|
G----------7--6----|-3-5-5-6-5-5-6-5-8-5-5-3-5-5-3-5------|
D--10---7--7--6-6--|-3-5-5-6-5-5-6-5-8-5-5-3-5-5-3-5------|
A--10---7--5--4-6--|-1-3-3-4-3-3-4-3-6-3-3-1-3-3-1-3------|
E--8----5-------4--|--------------------------------------|
   * * * * * * * * *  * * * * * * *    *  * * *  * * *  * *  * * * * * * *
E------------------------------------|--------------------------------------|
B------------------------------------|--------------------------------------|
G--5-6-6-8-6-6-8-6-10-6-6-5-6-6-5-6--|-6--8-8-10-8-8-10-8-11-8-8-6-8-8-6-8--|
D--5-6-6-8-6-6-8-6-10-6-6-5-6-6-5-6--|-6--8-8-10-8-8-10-8-11-8-8-6-8-8-6-8--|
A--3-4-4-6-4-4-6-4-8--4-4-3-4-4-3-4--|-4--6-6-8--6-6-8--6-9--6-6-4-6-6-4-6--|
E------------------------------------|--------------------------------------|
   * *  *  *  *  *  *  *  *  *  *  * *  *  * *
E------------------------------------------------|
B------------------------------------------------|
G--8-10-10-11-10-10-11-10-13-10-10-8-10-10-8-10--|
D--8-10-10-11-10-10-11-10-13-10-10-8-10-10-8-10--|
A--6-8--8--9--8--8--9--8--11-8--8--6-8--8--6-8---|
E------------------------------------------------|

End with intro riff.
Tap to rate this tab
# A B C D E F G H I J K L M N O P Q R S T U V W X Y Z