Song name
# A B C D E F G H I J K L M N O P Q R S T U V W X Y Z

Buckingham Nicks - Crying In The Night chords

Highlighted       Show chord diagrams
---------------------------------------------------------------------------
                Crying in the Night - Buckingham Nicks
---------------------------------------------------------------------------
Tabbed by: maguri
Tuning: Standard

Buckingham Nicks
Crying in the Night (1973)
(Stevie Nicks)

From: "Buckingham Nicks"

---------------------------------------------------------------------------
CHORDS

     E-A-D-G-B-e
A    x-0-2-2-2-0
D/A  x-0-4-2-3(0)
G/A  x-0-5-4-3(0)
Esus 0-2-2-2-0-0

---------------------------------------------------------------------------

INTRO/ VERSE                                            D/A D/A D/A
  A             D/A              G/A              D/A  A   A   A   A
e|0-----0-------0-|0-----0-------0-|0-----0-------0-|--0-0-0-0-0-0-0-|
B|2-----2-------3-|3-----3-------3-|3-----3-------3-|--2-3-2-3-2-3-2-|
G|2-----2-------2-|2-----2-------4-|4-----4-------2-|--2-2-2-2-2-2-2-|
D|2-----2-------4-|4-----4-------5-|5-----5-------4-|--2-4-2-4-2-4-2-|
A|0-----0-------0-|0-----0-------0-|0-----0-------0-|--0-------------|
E|----------------|----------------|----------------|----------------|

---------------------------------------------------------------------------

INTRO (see above)
| A | D/A | G/A | D/A A |
| A | D/A | G/A | D/A A |

        A                 D/A
She was that kind of lady
  G/A               D/A A D/A A 
Times were hard, ooh
              A             D/A
But she could come curling 'round you
     G/A [break]
Like fingers

           Bm7
But she'll leave you
              Esus E
Crying in the night
         Bm7
She will leave you
              Esus
Crying in the night
               Bm7
She's going to leave you
              Esus (break)
Crying in the night
              G     D
She's back in town
                  [A]
And she's looking around

| A | G/A | D |

        A                   D/A
Say you needed someone to depend on
       G/A
You're all alone
          D/A  A  D/A A D/A A D/A
She's the only one
A                     D/A
Who can come take you far away
          G/A [break]
Take your breath away

           Bm7
But she'll leave you
              Esus E
Crying in the night
         Bm7
She will leave you
              Esus
Crying in the night
               Bm7
She's going to leave you
              Esus (break)
Crying in the night
              G     D
She's back in town
                  [A]
And she's looking around

| A | G/A | D |

A       G/A
Come on baby
          D             G/A
She's the wrong kind a' girl
        A       G/A
She's a come-on lady
        D         G/A
She's a tarnished pearl
       A         G/A
She'll take your money
       D          G/A
She'll wreck your world
D          G/A
Wreck your world
        A       G/A (break)
She's a come-on baby

        Bm7    Esus          Bm7    Esus
Come-on girl, ooh, a come-on girl
     Bm7   Esus (break)           G   D
Come on... girl,      she's back
                  | A | G/A | D |
And she's looking around
             | A | G/A | D |
She's looking around
                  | A | G/A | D | A
And she's looking around
Tap to rate this tab
 
# A B C D E F G H I J K L M N O P Q R S T U V W X Y Z