Song name
# A B C D E F G H I J K L M N O P Q R S T U V W X Y Z

Buckingham Nicks - Frozen Love tab

              h                 p             h
e|--------|*-------------------------------------------------------------------|
B|--------|*-----------------------------3---------0-----------2-----3---------|
G|-----2--|*-------2-----1---------2-------------------------------------------|
D|-----0--|*-----0-------0-----4^0-------0-------0-------0-------0-------0-----|
A|--------|*-2^4-------------2---------------2^4-------------2---------------2-|
E|-0------|*---------0---------------0---------------0---------------0---------|
     p p   p
e|---------------------------------------------------------------*|
B|--3^2^0-2^0---0-------0-------------------------------------3--*|
G|------------2-------------2-1---2-1---1-----2-----1---2--------*|
D|--0---------0-------0-------0-4-----4-------0-------0-------0--*|
A|----------------2---------------2---------------2--------------*|
E|--------0---------------0---------------0---------------0------*|

|*----*| = repeat
Tap to rate this tab
 
# A B C D E F G H I J K L M N O P Q R S T U V W X Y Z