Song name
# A B C D E F G H I J K L M N O P Q R S T U V W X Y Z

Buckingham Nicks - Long Distance Winner tab

-------------------------------------------------------------------------------
                    Long Distance Winner - Buckingham Nicks
-------------------------------------------------------------------------------
Tabbed by: theredlongitude
E-mail for corrections/suggestions/hate mail: killmashno@yahoo.com

I wished more people knew about this album. This song has some true beauty in it.

Tuning: Standard
I'd advise you to use a capo on the first fret for the main riffs and rhythm.
This tab assumes that you have not.

Main Riff 1 - Clean
Repeat each phrase twice

e||--4--4--4----3----4---|---6--6--6----4----6-----|---6--6--6----5----6--6--|
B||--6--6--6----4----6---|---7--7--7----6----7-----|---6--6--6----6----6--6--|
G||--5--5--5----3----5---|---6--6--6----5--5/6-----|---7--7--7----5----7--7--|
D||----------------------|-------------------------|-------------------------|
A||----------------------|-------------------------|-------------------------|
E||----------------------|-------------------------|-------------------------|

Main Riff 1 Accompaniment - Rhythm
Repeat each phrase twice

e||--------------------------|---------------------1-|---------------------1-||
B||--------------------------|-----------------2-----|-----------------3-----||
G||--------------------------|---------------3---3---|-----------------------||
D||---3------3-----3-------3-|---4----4---4----------|--(3)-(3)--(3)-3---3---||
A||-----1p3-----------1p3----|-----4-----------------|-1-------1-------------||
E||-1------------1-----------|-2--------2------------|-----1-----------------||

Main Riff 1 and 2 Accompaniment - Overdrive
The first section is supposed to sound like a violin and is only heard in the intro.
The other is played each time the second main riff is played.
e||----------------------------|--------------------------------------------||
B||-11-----13b15---------------|--------------------------------------------||
G||------------------10-----11-|-13b15r13-----------------------------------||
D||----------------------------|------------13b15r13-----13b15r13----11\8---||
A||----------------------------|--------------------------------------------||
E||----------------------------|--------------------------------------------||

Bridge - Clean

e||-------1-------------------------1--------|
B||-------1-------------------------1--------|
G||------------------------------------------|
D||-------------3---------1h3-------------3--|
A||-------------3-----1h3-----------------3--|
E||--1-------------------------1-------------|

                          ^ Optional substitute
                     e|-----------|
                     B|-----------|
                     G|-----------|
                     D|--3/5-5/6--|
                     A|-----------|
                     E|-----------|

e|------------2-----------1-----------1-----------1-----------1--------1--||
B|---------2-----------2-----------2-----------2-----------2-----2-----4--||
G|------3-----------3-----------3-----------------------3-----------3--3--||
D|---4-----------3-----------3--------------3--------3-----------------1--||
A|---------------------------------------4--------------------------------||
E|------------------------------------------------------------------------||

Bridge - Overdrive

e||------------------------------------------------------------------------||
B||-----------------------------------------------11-11b13--b13r--9--11----||
G||--------------------------------------10h12h13--------------------------||
D||-----------------------10-11p10-11h13-----------------------------------||
A||-----------11-13p11-13--------------------------------------------------||
E||--13p11-13--------------------------------------------------------------||

Guitar Solo 1 (2:10)

e||---------------------------------------------------------------------|
B||---------------------------------------------------------------------|
G||----------8p6------6--8b10rb10r8--------8--8p6-8p6-------------------|
D||--8-8-8-8-----8------------------------------------8p6-8-8-8-8-8-etc-|
A||---------------------------------------------------------------------|
E||---------------------------------------------------------------------|

e|---------------------------------------------------------------------------|
B|-----------9-11--9-11-14---14b16===16r14----14b16===16r14------------------|
G|----8-8h10-------------------------------15---------------15-13b15===15r13-|
D|--8------------------------------------------------------------------------|
A|---------------------------------------------------------------------------|
E|---------------------------------------------------------------------------|

e|---------------------------------------------------------------------------|
B|---------------------------------------------------------------------------|
G|----13b15===15r13----15-13b15-13----13b15--13-----15-13--------------------|
D|-15---------------15-------------15-----------15--------15-13----------13--|
A|--------------------------------------------------------------16-13-16-----|
E|---------------------------------------------------------------------------|

e|------------------------------------------------------------------------|
B|---16b18---16p14-16b18r16p14-------14-------14--------------------------|
G|-----------------------------15-------15----------13----13h15-15p13-15--|
D|--------------------------------15-------15----15----15-----------------|
A|------------------------------------------------------------------------|
E|------------------------------------------------------------------------|

e|--------------------------------------------------------------------------------------||
B|-------14----14h16-14----16b18---16p14-16b18===18r16p14-------------------(13)--------||
G|-15p13----13----------13--------------------------------13-15--15--15--15--15b17==\13-||
D|--------------------------------------------------------------------------------------||
A|--------------------------------------------------------------------------------------||
E|--------------------------------------------------------------------------------------||

Guitar Solo 2 (3:45)

e||---------------------------------------------------------------------------|
B||---------------------------------------------------------------------------|
G||---------------------------------------------------------------------------|
D||--13b15--etc--13b15===15===15r--13p11-13p11----11-----------11----13----11-|
A||--------------------------------------------13--------13p11----13----13----|
E||---------------------------------------------------------------------------|

e|------------------------------------------------------------------------------|
B|------------------------------------------------------------------------------|
G|-------------------------------------------------13b15--13p11-------11--------|
D|-13----11-13----11-13----11-13p11---13/15--13p11--------------15p13----15-13--|
A|----13-------13-------13------------------------------------------------------|
E|------------------------------------------------------------------------------|

e|------------------------------------------------------------------------|
B|------------------------11----11----14b16---14-11----14-11----11--------|
G|------------10----13-------13----13---------------13-------13----13b15--|
D|---------11----11----11-------------------------------------------------|
A|-13---13----------------------------------------------------------------|
E|------------------------------------------------------------------------|

e|------------------------------------------------------------------------------|
B|--------11----------------14b16--14p11-14b16--14p11-14b16--14p11-14b16--14p11-|
G|-r13p10----13b15---13p10------------------------------------------------------|
D|------------------------------------------------------------------------------|
A|------------------------------------------------------------------------------|
E|------------------------------------------------------------------------------|

e|-------------------------------------------------------------------------------|
B|----14b16-14p11---------------11----------------------------14p11-16b18--16p14-|
G|----------------13b15---13-10----13-10-----------------------------------------|
D|-15------------------------------------13-11----11----11h13--------------------|
A|---------------------------------------------13----13--------------------------|
E|-------------------------------------------------------------------------------|

e|-------------------------------------------------------------------------------|
B|----------14------------------------------14h16-16b18=18=18=18=18==18===r16p14-|
G|-15p13-------15----13h15----13-13h15-15----------------------------------------|
D|-------15-------15-------15----------------------------------------------------|
A|-------------------------------------------------------------------------------|
E|-------------------------------------------------------------------------------|

e|-------------------------------------------------------------------------------|
B|-----16b18==r16p14----14-16b18==r16p14----14-16----14-16------14------14-------|
G|-15----------------15------------------15-------15---------15----15------15----|
D|--------------------------------------------------------------------15------15-|
A|-------------------------------------------------------------------------------|
E|-------------------------------------------------------------------------------|

e|----------------------------------------------------------------------------|
B|-14-----------------------14------------------------------------------------|
G|----15----13-15-----15-13----15----13-15p13--15--15-13-------15-15-13b15-13-|
D|-------15-----------------------15---------15----------13p11----------------|
A|----------------------------------------------------------------------------|
E|----------------------------------------------------------------------------|

e|---------------------------------------------------------------------------|
B|---------------------------------------------------------------------------|
G|----15-13--------------------------------------------------------15-----15-|
D|-15---------------13----------------------------------------13------13b----|
A|----------16-13------16-13-13-13-13-16-13-13-13-13-16-13-16----------------|
E|---------------------------------------------------------------------------|

e|--------------------------------------------------------||
B|--------------------------------------------------------||
G|-----15------13--------------------------------13-15----||
D|-13b----13b15====15r13p11----13p11-------13-15----------||
A|--------------------------13----------16--------fade out||
E|--------------------------------------------------------||

There's a second guitar playing on a higher octave that comes in late. If you came this 
far, I'm sure you can figure the 10 seconds or
so you can hear it. Have fun.

************************************

| /   slide up
| \   slide down
| h   hammer-on
| p   pull-off
| g   grace note
Tap to rate this tab
# A B C D E F G H I J K L M N O P Q R S T U V W X Y Z